Search tabs:
Browse artists: 0-9 | A | B | C | D | E | F | G | H | I | J | K | L | M | N | O | P | Q | R | S | T | U | V | W | X | Y | Z
/ Therapy? / Semi-Detached (1998) / Black Eye Purple Sky bass tab

Intro
G |--------------------------------||   |--------------------------------|
D |--------------------------------||   |--------------------------------|
A |--------------------------------||   |--------------------------------|
E |-7-7-7-7-7-7-7-7-7\-------------||3x |-7-7-7-7-7-7-7-7-7-7-7-7---7---7|

Chorus
G |--------------------------------|--------------------------------|
D |--------------------------------|--------------------------------|
A |-5---5---5---5-8---8-8-8-7-5----|-2---2---2-2-5-0---0-0---0-0----|
E |-----------7--------------------|--------------------------------|

G |--------------------------------|--------------------------------|
D |--------------------------------|--------------------------------|
A |-5---5---5---5-8---8-8-8-7-5----|-2---2---2-2-5-0-x--------------|
E |-----------7--------------------|--------------------------------|

Chorus Bar B At [01:33]
G |--------------------------------|--------------------------------|
D |--------------------------------|--------------------------------|
A |-5---5---5---5-8---8-8-8-7-5----|-2---2---2-2-5-0---0-0----------|
E |-----------7--------------------|--------------------------4---2-|

Verse
G |--------------------------------|--------------------------------|
D |--------------------------------|--------------------------------|
A |-2---2-2-2-2---2-0-2-2-2-2-2-0-2|-2---2-2-2-2---2-0-2-2-2-2-2-0-2|
E |-------------3------------------|-------------3------------------|

G |--------------------------------|--------------------------------|
D |--------------------------------|--------------------------------|
A |-3-3-----3-3-----3-3-----3-3----|-3-3-3-3\5-5-5-5\7-7-7-7\9-9-9--|
E |--------------------------------|--------------------------------|

Break
G |--------------------------------|--------------------------------|
D |--------------------------------|--------------------------------|
A |-5-----7-7-----9-9-----10-10-\--|-5-----7-7-----9-9-----9-10-9-7-|
E |--------------------------------|--------------------------------|

G |--------------------------------|--------------------------------|
D |--------------------------------|--------------------------------|
A |-2-2-2-0-2-2-0-2---2-2-0-2-0-2-0|-2-2-0-2-2-0-2-0-2-2------------|
E |--------------------------------|-----------------------7\-------|
(Something like this, just follow the drums)

G |--------------------------------|--------------------------------|
D |--------------------------------|--------------------------------|
A |-5-----7-7-----9-9-----9-10-9-7-|-5---------------7-----7--5--7--|
E |--------------------------------|---------7----------------------|

G |--------------------------------|--------------------------------|
D |--------------------------------|--------------------------------|
A |-------(Guitar(s))--------------|--------------------------------|
E |-7------------------------------|--------------------------------|

[00:03] Intro
[00:15] Chorus
[00:27] Verse
[00:52] Chorus
[01:03] Verse
[01:27] Chorus (Use Chorus B at [01:33]) 2x
[01:48] (Guitar Only)
[01:54] Break
[02:18] Verse
[02:42] Chorus


Therapy? albums
2003 High Anxiety
2001 Shameless
2000 Suicide Pact: You First
1998 Semi-Detached
1995 Infernal Love
1994 Troublegum
1993 Nurse
1993 Born in a crash
Semi-Detached tabs
01Church of Noise tabbass tab
03Black Eye Purple Sky tabbass tab
06Stay Happy tabbass tab
07Safe tabbass tab
13Suing God tabbass tab

 

1