Search tabs:
Browse artists: 0-9 | A | B | C | D | E | F | G | H | I | J | K | L | M | N | O | P | Q | R | S | T | U | V | W | X | Y | Z
/ Therapy? / Semi-Detached (1998) / Church of Noise bass tab

Comments: Just a first try.  Chorus is stil a mystery, have to check a live version for that.
Tuning: (Dropped D)

Verse
G |--------------------------------|--------------------------------|
D |--------------------------------|--------------------------------|
A |--------------------------------|--------------------------------|
D |-5-----5---0-2-3-4-5---5---0-3-4|-5-----5---0-2-3-4-5---5---0-3-4|

Chorus
G |--------------------------------|--------------------------------|
D |-----------\10-10--12^10-12^10?-|--------------------------------| (What da ***?
A |-0---0---0----------------------|--------------------------------|  I do not know!)
D |--------------------------------|-5-----5---0-2-3-4-5---5---0-3-4|

Chorus End
G |--------------------------------|
D |--------------------------------|
A |------------------------(5-4-3-2) Play only at [01:05]
D |-0---0---0---0---0---0----------|

Interlude
G |--------------------------------|--------------------------------|
D |--------------------------------|--------------------------------|
A |-2---2---2-2-2-2---2-2-2-2------|--------------------------------|
D |--------------------------------|-2---2---2-2-2-2---2-2-2-2------|

G |--------------------------------|--------------------------------|
D |--------------------------------|--------------------------------|
A |-0---0---0-0-0-0---0-0-0-0------|-5---5---5-5-5-5---5-5-5-5------|
D |--------------------------------|--------------------------------|

End
G |--------------------------------||   |--------------------------------|
D |--------------------------------||   |--------------------------------|
A |--------------------------------||   |--------------------------------|
D |-5------------------------------||3x |-3----4----5--------------------|

[00:06] Verse 4x
[00:27] Chorus + Chorus End
[00:39] (guitar only)
[00:44] Verse 2x
[00:55] Chorus + Chorus End
[01:06] Interlude 2x
[01:28] Verse 2x (Solo? Part)
[01:38] Verse 2x
[01:49] Chorus 2x
[02:08] Chorus End
[02:11] End


Therapy? albums
2003 High Anxiety
2001 Shameless
2000 Suicide Pact: You First
1998 Semi-Detached
1995 Infernal Love
1994 Troublegum
1993 Nurse
1993 Born in a crash
Semi-Detached tabs
01Church of Noise tabbass tab
03Black Eye Purple Sky tabbass tab
06Stay Happy tabbass tab
07Safe tabbass tab
13Suing God tabbass tab

 

1