Search tabs:
Browse artists: 0-9 | A | B | C | D | E | F | G | H | I | J | K | L | M | N | O | P | Q | R | S | T | U | V | W | X | Y | Z
/ Therapy? / Semi-Detached (1998) / Safe bass tab

Verse A
G |--------------------------------|--------------------------------|
D |-2---2-2-2---2-2---2-2-2-2---2--|-2---2-2-2---2-2---2-2-2-0---0--|
A |--------------------------------|--------------------------------|
E |--------------------------------|--------------------------------|

Bridge                                                                 Last Time
G |--------------------------------|--------------------------------| |--------------------------------|
D |-2?--2-2-2---2-2---2-2-2-2---0--|-2?--2-2-2---2-2---2-2-5-5---4--| |-2---2-2-2---2-2-\-5-5-5-5---5--|
A |--------------------------------|--------------------------------| |--------------------------------|
E |-0?-----------------------------|-0?-----------------------------| |--------------------------------|

Chorus
G |--------------------------------|--------------------------------|
D |--------------------------------|--------------------------------|
A |-2---2-2-2---2-2-2---2-2-2---3--|-2---2-2-2---2-2-2---2-2-2---3--|
E |--------------------------------|--------------------------------|

Verse B (Two notes different, yes!)
G |--------------------------------|--------------------------------|
D |-2---2-2-2---2-2---2-2-2-2---0--|-2---2-2-2---2-2---2-2-2-2---0--|
A |--------------------------------|--------------------------------|
E |--------------------------------|--------------------------------|

Outro A
G |--------------------------------|--------------------------------|
D |-0---0---0-0-0---0---0---0---0--|--------------------------------|
A |--------------------------------|-0---0---0-0-0---0---0---0---0--|
E |--------------------------------|--------------------------------|

G |--------------------------------|--------------------------------|
D |--------------------------------|--------------------------------|
A |--------------------------------|--------------------------------|
E |-0------------------------------|--------------------------------|

Outro B
G |--------------------------------|--------------------------------|
D |--------------------------------|--------------------------------|
A |--------------------------------|--------------------------------|
E |-0---0---0---0---0---0---0---0--|-0---0---0---0---0---0---0---0--| (? Huh)

Solo
G |--------------------------------|--------------------------------|
D |-2---2-2-5---4-2---2-2--5-5-4-4-|-2---2-2-5---4-2---2-2-5-5-4-4--|
A |--------------------------------|--------------------------------|
E |--------------------------------|--------------------------------|

G |--------------------------------|--------------------------------|
D |-2---2-2-5---4-2---2-2--5-5-4-4-|-2---2-2-5---4-2---2------------|
A |--------------------------------|--------------------------------|
E |--------------------------------|--------------------------------|

[00:00] (A Low E there and some lost notes)
[00:16] Verse A 6x

[00:??] Verse A 6x
[01:25] Bridge 4x
[01:45] Chorus 2x
[01:55] Verse B 2x
Repeat this block

[03:13] Chorus 2x
[03:23] Verse B 2x
[03:33] Outro A 4x
[04:12] Outro B 4x
[04:32] Solo


Therapy? albums
2003 High Anxiety
2001 Shameless
2000 Suicide Pact: You First
1998 Semi-Detached
1995 Infernal Love
1994 Troublegum
1993 Nurse
1993 Born in a crash
Semi-Detached tabs
01Church of Noise tabbass tab
03Black Eye Purple Sky tabbass tab
06Stay Happy tabbass tab
07Safe tabbass tab
13Suing God tabbass tab

 

1