Search tabs:
Browse artists: 0-9 | A | B | C | D | E | F | G | H | I | J | K | L | M | N | O | P | Q | R | S | T | U | V | W | X | Y | Z
/ / / bass tab

Intro
G |--------------------------------|--------------------------------|
D |--------------------------------|--------------------------------|
A |--------------------------------|-----------------7---5---5---7--|
E |--------------------------------|--------------------------------|

Verse A
G |--------------------------------|--------------------------------|
D |--------------------------------|--------------------------------|
A |-0-0-0-0-0-0-0-0-7-7-7-7-7-7-7-7|-----------------7-7-7-7-7-7-5-7|
E |--------------------------------|-3-3-3-3-3-3-3-3----------------|

Verse B (High G)
G |--------------------------------|--------------------------------|
D |--------------------------------|-5-5-5-5-5-5-5-5----------------|
A |-0-0-0-0-0-0-0-0-7-7-7-7-7-7-7-7|-----------------7-7-5-5-7-7-8-8|
E |--------------------------------|--------------------------------|

Break
G |--------------------------------|--------------------------------|
D |--------------------------------|--------------------------------|
A |-0-----0-----------------3---2-3|-0-----0-----------------3---2-3|
E |---------0-----0-1-----1--------|---------0-----0-1-----1--------|

Verse C
G |--------------------------------|
D |--------------------------------|
A |-0-0-0-0-0-0-0-0----------------|
E |-----------------0-0-0-0-0-0-0-0|

Verse D (Low G)
G |--------------------------------|--------------------------------|
D |--------------------------------|--------------------------------|
A |-0-0-0-0-0-0-0-0-7-7-7-7-7-7-7-7|-----------------7-7-5-5-7-7-8-8|
E |--------------------------------|-3-3-3-3-3-3-3-3----------------|

Chorus
G |--------------------------------|--------------------------------|
D |--------------------------------|--------------------------------|
A |-0-0-0-0-----------------3-3-3-3|-0-0-0-0-----------------3-3-2-3|
E |---------0-0-0-0-1-1-1-1--------|---------0-0-0-0-1-1-1-1--------|
                                                                      Alternate Ending
G |--------------------------------|--------------------------------| |--------------------------------|
D |--------------------------------|--------------------------------| |--------------------------------|
A |-0-0-0-0-----------------3-3-3-3|-0-0-0-0------------------------| |-0-0-0-0----------------(2)-(3)-|
E |---------0-0-0-0-1-1-1-1--------|---------0-0-0-0-1-1-1-x--------| |---------0-0-0-0-3-3-3-3--------|


Break
G |--------------------------------|--------------------------------|
D |--------------------------------|---------------5-5--------------|
A |-3---2^3-2---------------\5--7--|-7----5^7-5^7------7-7-5-3-5----|
E |-----------3---3-3-3-3-3--------|--------------------------------|

G |--------------------------------|--------------------------------|
D |--------------------------------|--------------------------------|
A |-3---2^3-2----------------------|--------------------------------|
E |-----------3---3-3-3-3-3-0-0----|-0-0-x---0-0-x---0-0-x---0-0-x--|

Repeat first bar of break

G |--------------------------------|--------------------------------|
D |--------------------------------|--------------------------------|
A |-3---2^3-2---------------5------|-2-2-2-2-2-2-2-2-2-2-2-2-5\-----|
E |-----------3---3-3-3-3-3--------|--------------------------------|

Solo Part
G |--------------------------------|--------------------------------|
D |--------------------------------|-----------------7---5---5-^-7--|
A |--------------------------------|--------------------------------| (Use Wah-Wah/Flanger Effect)
E |--------------------------------|--------------------------------|

G |--------------------------------|--------------------------------|
D |--------------------------------|\5-5-5-5-5----------------------|
A |-0-0-0-0-0------\7-7-7-7-7------|----------------\7-7-7-7-7-7-5^7|
E |--------------------------------|--------------------------------|

G |--------------------------------|--------------------------------|
D |--------------------------------|---------------------------2^3^2|
A |-0-0-0-0-0------\7-7-7-7-7------|--------------------------------|
E |--------------------------------|-3-3-3-3-3-------3---3---3------|

G |--------------------------------|--------------------------------|
D |--------------------------------|\5-5-5---5----------------------|
A |-0-0-0-0-0------\7-7-7-7-7------|----------------\7---7---7*8-7--| * Bend to 8 and back
E |--------------------------------|--------------------------------|

G |--------------------------------|-(No Effect here)---------------|
D |--------------------------------|--------------------------------|
A |-0-0-0-0-0------\7-7-7-7-7------|----------------\7-7-5-5-7-7-8-8|
E |--------------------------------|-3-3-3-3-3-3-3-3----------------|


[00:09] Intro
[00:10] Verse A,B
[00:24] Break

[00:30] Verse A,C,Break
[00:42] Verse A,B
[00:54] Chorus
[01:06] Verse A,D
[01:18] Chorus (Alternate Ending)
[01:30] Break
[01:54] Chorus 2x (Alternate Ending)

[02:20] Solo Part
[02:49] Chorus 2x


albums
tabs

 

1