Search tabs:
Browse artists: 0-9 | A | B | C | D | E | F | G | H | I | J | K | L | M | N | O | P | Q | R | S | T | U | V | W | X | Y | Z
/ Therapy? / Shameless (2001) / Dance (While The Music Still Goes On) bass tab

Intro
G |--------------------------------|--------------------------------|
D |--------------------------------|--------------------------------|
A |-0-------0---3---0--------------|---------0---3---0---3---3---3--|
E |---------------------3---5---3--|-5------------------------------|

G |--------------------------------|--------------------------------|
D |--------------------------------|--------------------------------|
A |-0-------0---3---0--------------|---------0---3---0-------3------|
E |---------------------3---5---3--|-5-------------------1-------3--|

Verse
G |--------------------------------|--------------------------------|
D |-7-------7---10--7---5---7---5--|-7-------7---10--7---10--10--10-|
A |--------------------------------|--------------------------------|
E |--------------------------------|--------------------------------|

G |-----------------------------5--|-------------------------7------|
D |-7-------7---10--7---5---7------|-7-------7---10--7---10------10-|
A |--------------------------------|--------------------------------|
E |--------------------------------|--------------------------------|

G |-----------------------------5--|--------------------------------|
D |-7-------7---10--7---5---7------|-7-------7---10--7---10--10--10-|
A |--------------------------------|--------------------------------|
E |--------------------------------|--------------------------------|

G |-----------------------------5--|--------------------------------|
D |-7-------7---10--7---5---7------|-7-------7---10--7--------------|
A |--------------------------------|-------------------------3------|
E |--------------------------------|---------------------1-------3--|

Bridge
G |--------------------------------||   |--------------------------------|
D |--------------------------------||   |--------------------------------|
A |-0-------0---3---0--------------||   |-0-------0---3---0-------3------|
E |---------------------1~~--------||3x |---------------------1-------3--|

Chorus
G |--------------------------------|--------------------------------|
D |-3------------------------------|-5------------------------------|
A |---------3---3-------3---3------|---------3---3-------3---3------|
E |--------------------------------|--------------------------------|

G |--------------------------------|--------------------------------|
D |---------------------3---3---3--|---------------------3---3---3--|
A |-0-------0---3---0--------------|-0-------0---3---0--------------|
E |--------------------------------|--------------------------------|

Chorus End
G |--------------------------------|--------------------------------|
D |-3------------------------------|--------------------------------|
A |---------3---3-------3---3------|--------------------------------|
E |--------------------------------|-3---------------4--------------|

Break A
G |--------------------------------|--------------------------------|
D |--------------------------------|--------------------------------|
A |--------------------------------|-5------------------------------|
E |-5------------------------------|--------------------------------|

G |--------------------------------|--------------------------------|
D |--------------------------------|--------------------------------|
A |-3------------------------------|--------------------------------|
E |--------------------------------|-3---------------4--------------|

Break B
G |--------------------------------|--------------------------------|
D |--------------------------------|--------------------------------|
A |-------------5---------------5--|-------------5------------------|
E |-5---------------5--------------|-5---------------3------4-------|


[00:07] Intro 3x
[00:28] Verse
[00:42] Bridge 2x

[00:56] Verse
[01:10] Bridge 2x
[01:24] Chorus 2x
[01:38] Chorus End
[01:42] Intro (Only first two bars)
(Stop)

[01:49] Verse
[02:03] Bridge 2x
[02:17] Chorus 2x
[02:30] Chorus End

[02:34] Break A
[02:41] (Guitar Only)
[02:48] Intro (Guitar Solo)
[03:01] Chorus
[03:15] Chorus End (End with an A)

[03:19] (Guitar Only)
[03:27] Break B
[03:33] Intro 2x
[03:48] Intro 2x (Dance!)


Therapy? albums
2003 High Anxiety
2001 Shameless
2000 Suicide Pact: You First
1998 Semi-Detached
1995 Infernal Love
1994 Troublegum
1993 Nurse
1993 Born in a crash
Shameless tabs
01Gimme Back My Brain tabbass tab
02Dance tabbass tab
03This One's for You tabbass tab
05Wicked Man tabbass tab
12Stalk & Slash tabbass tab

 

1