Search tabs:
Browse artists: 0-9 | A | B | C | D | E | F | G | H | I | J | K | L | M | N | O | P | Q | R | S | T | U | V | W | X | Y | Z
/ / / bass tab

Personally I think this is pretty good. Ok here we go!

Bass comes in at 10 secs after the guitar intro
Intro x4
G-------------------------------
D--------------------------2----
A-0--1-2-x-x-x-x-x-x-x-x-x---2--        (x) means mute
E-------------------------------

Then verse x4
G-----------------------------------------------
D------------2------------2------------0---0----
A-2-2--2-2-2---2-2--2-2-2---2-2--2-2-2---0---0--
E-----------------------------------------------

Then Play Bridge part one x1
G--------------------------------------
D-5555555555555555-4444444444444444----
A--------------------------------------
E--------------------------------------

And then bridge part two x1
G----------------
D-55555555--5----
A----------------
E ---------------

Then verse x4
G-----------------------------------------------
D------------2------------2------------0---0----
A-2-2--2-2-2---2-2--2-2-2---2-2--2-2-2---0---0--
E-----------------------------------------------

Bridge part one x3
G------------------------------------
D-5555555555555555-44444444444444444-
A------------------------------------
E------------------------------------

And then bridge part two x1
G------------------
D-55555555--5------
A------------------
E -----------------


Then chorus same as the intro
G-------------------------------
D--------------------------2----
A-0--1-2-x-x-x-x-x-x-x-x-x---2--
E-------------------------------

And then play this during the guitar solo
G----------------------------------------------------------
D-44444444-(x2)--22222222-(x2)----------------3-2-1-0------
A------------------------------22222222-(x2)---------------
E----------------------------------------------------------

Play bass solo x2 which is same as verse
G-----------------------------------------------
D------------2------------2------------0---0----
A-2-2--2-2-2---2-2--2-2-2---2-2--2-2-2---0---0--
E-----------------------------------------------

Then bridge part one again... x3
G-----------------------------------
D-5555555555555555-4444444444444444-
A-----------------------------------
E-----------------------------------

And then bridge part two x1
G------------------
D-55555555--5------
A------------------
E -----------------

Chorus x8
G-------------------------------
D--------------------------2----
A-0--1-2-x-x-x-x-x-x-x-x-x---2--
E-------------------------------

And then finally play
G--------------
D-3-2-1-0------
A----------0---
E--------------

I think this is fairly right maybe a few errors but hey! Tell me what you think about my tabs and email me. bass_mann4@hotmail.com
Thanks


albums
tabs

 

1