Search tabs:
Browse artists: 0-9 | A | B | C | D | E | F | G | H | I | J | K | L | M | N | O | P | Q | R | S | T | U | V | W | X | Y | Z
/ / / bass tab

(Dropped D tuning)

Intro
G |---|--------------------------------|
D |---|--------------------------------|
A |---|--------------------------------|
E |---|-0~~----------------------------| (Wait few bars)

Verse
G |--------------------------------|--------------------------------|
D |--------------------------------|--------------------------------|
A |-------------------5-4-3---3-2-1|-------------------5-4-3---3-2-1|
E |-0-3-4-5-0-5-6-7-0-------0------|-0-3-4-5-0-5-6-7-0-------0------|

Chorus
G |--------------------------------|--------------------------------|
D |-5-5-5-5---5-5-5-5---5----------|-5-5-5-5---5-5-5-5---5----------|
A |--------------------------------|--------------------------------|
E |---------------------5----------|---------------------5----------|

G |--------------------------------|--------------------------------|
D |--------------------------------|--------------------------------|
A |-5-4-3-2-1-0--------------------|-5-4-3-2-1-0--------------------|
E |-------------6-5-4-3-2-1-0------|-------------6-5-4-3-2-1-0------|


[00:00] Intro
[00:06] (Guitar)
[00:12] Verse 2x
[00:24] Verse 2x
[00:36] Verse
[00:42] Verse 2x
[00:54] Chorus 2x
        (No more drugs for this young man)
[01:19] Verse 2x (Fuzz on the bass)
[01:33] Chorus 2x
[01:56] Last Chorus Bars again
[02:02] Verse (Skip last notes)
End with a D


albums
tabs

 

1