Search tabs:
Browse artists: 0-9 | A | B | C | D | E | F | G | H | I | J | K | L | M | N | O | P | Q | R | S | T | U | V | W | X | Y | Z
/ Therapy? / Shameless (2001) / This One's for You bass tab

Intro
G |--------------------------------|--------------------------------|
D |--------------------------------|--------------------------------|
A |--------------------------------|-------------------------5---4--|
E |--------------------------------|--------------------------------|

G |--------------------------------|--------------------------------||
D |--------------------------------|--------------------------------||
A |-2-------2-------2------2-------|-5-5-5-0-5-5-5-0-5-5-5-0-5-7-5-0||
E |--------------------------------|--------------------------------|| 2x

Verse
G |--------------------------------|--------------------------------|
D |--------------------------------|--------------------------------|
A |-2-2-2-0-2-2-2-0-2-2-2-0-2-2-2-0|-5-5-5-0-5-5-5-0-5-5-5-0-5-7-5-0|
E |--------------------------------|--------------------------------|

Chorus
G |--------------------------------|
D |--------------------------------|
A |---------------2---2-2---2-2-2--| (Sometimes some strange slides)
E |-3---3---3-2-3------------------|

Chorus Middle
G |--------------------------------|
D |--------------------------------|
A |-0-0-5^7-0-0-5^7-0-0-5^7-0-0-5^7|
E |--------------------------------|

Chorus End
G |--------------------------------|
D |--------------------------------|
A |--------------------------------|
E |-5---5---3-5-5-5---2~~----------|

Champagne
G |--------------------------------|--------------------------------||
D |--------------------------------|--------------------------------||
A |-2-2-2-2------------------------|-5-5-5-0-5-5-5-0-5-5-5-0-5-7-5-0||
E |--------------------------------|--------------------------------|| 2x

Outro
G |--------------------------------|--------------------------------||
D |--------------------------------|--------------------------------||
A |-2-2-2-2-2-2-2-2-5-5-5-5-5-5-5-5|--------------------------------||
E |--------------------------------|-5-5-5-5-5-5-5-5-3-3-2/4-3-3-2-3|| 4x


[00:00] Guitar
[00:06] Intro
[00:24] Verse 6x
[01:00] Chorus 3x | Chorus End
[01:13] Verse 3x
[01:30] Chorus 5x | Chorus End

[01:54] (Guitar Only)
[02:06] Chorus 3x | Middle | Chorus 3x | End

[02:29] Verse 2x (Bass only)
[02:42] Champagne
[02:54] Chorus 2x | Middle | Chorus 2x | End
[03:17] Outro


Therapy? albums
2003 High Anxiety
2001 Shameless
2000 Suicide Pact: You First
1998 Semi-Detached
1995 Infernal Love
1994 Troublegum
1993 Nurse
1993 Born in a crash
Shameless tabs
01Gimme Back My Brain tabbass tab
02Dance tabbass tab
03This One's for You tabbass tab
05Wicked Man tabbass tab
12Stalk & Slash tabbass tab

 

1