Search tabs:
Browse artists: 0-9 | A | B | C | D | E | F | G | H | I | J | K | L | M | N | O | P | Q | R | S | T | U | V | W | X | Y | Z
/ / / bass tab

Intro
G |--------------------------------||     |--------------------------------|
D |-9-------7-------5--------------||     |-5-------7-------9--------------|
A |------------------------7-------||     |--------------------------------|
E |--------------------------------|| 4x  |--------------------------------|

Verse
G |--------------------------------|
D |--------------------------------|
A |---------------------------7-7-7|
E |-7-7-7-7-5-5-5-5-3-3-3-0--------|

Verse Variation
G |--------------------------------|
D |-----------------------------7--|
A |-------------------------5^7---7|
E |-7-7-7-7-5-5-5-5-3-3-3-0--------|

Verse End A & B
G |--------------------------------| |--------------------------------|
D |--------------------------------| |--------------------------------|
A |--------------------------------| |-----------------------------5-6|
E |-3-3-3-3-5-5-5-5-7-7-7-7-7-7-5-6| |-3-3-3-3-5-5-5-5-7-7-7-7-7-7----|

Chorus
G |--------------------------------|--------------------------------|
D |--------------------------------|--------------------------------|
A |-7-7-5-7-7-7-5-7-7-7-5-7-7-5-7-7|-2-2-0-2-2-2-0-2-2-0-2-2-2-0-5-6|
E |--------------------------------|--------------------------------|

G |--------------------------------|--------------------------------|
D |--------------------------------|---------------4-/-16-----------|
A |-7-7-5-7-7-7-5-7-7-7-5-7-7-5-7-7|-9-9-9-9-9-9-9------------------|
E |--------------------------------|--------------------------------|

Outro
G |--------------------------------||     |--------------------------------||
D |-9-------7-------5--------------||     |-5---------------9--------------||
A |------------------------7-------||     |---------9----------------------||
E |--------------------------------|| 4x  |--------------------------------|| 3x



[00:03] Intro (Play Slow)
[00:51] Verse 3x | Verse End A
[01:07] Verse 3x | Verse End A
[01:24] Verse | Verse Variation | Verse | Verse End B
[01:41] Chorus

[01:56] Verse | Verse Variation | Verse | Verse End A
[02:13] Verse 3x | Verse End B
[02:30] Chorus
[02:46] Outro


albums
tabs

 

1