Search tabs:
Browse artists: 0-9 | A | B | C | D | E | F | G | H | I | J | K | L | M | N | O | P | Q | R | S | T | U | V | W | X | Y | Z
/ Therapy? / Suicide Pact: You First (2000) / Jam Jar Jail bass tab

Tab by: OVER_THAT@HOTMAIL.COM
Artist: Therapy? Song: Jam Jar Jail
INTRO/VERSE
G-------------------------------------------------------------------------------
D-------------------------------------------------------------------------------
A------------------3----3--3--3----3--3--3-----------------5--------------------
E-5--5--5--3--5--------------------------------1---1---1------5--5--5----5--5--5
CHORUS
G-----------------------------|        --------------------------------------
D-----------------------------| X4     ---2--2--2--1--0----0--0--0---0--0-0--
A---5---3----------3---5------|        --------------------------------------
E-------------5------------5--|        --------------------------------------
BRIDGE
G----------------------------------------------------------------------------------
D-----------------------------------------------------------------------------------
A---3--------3---------3--------3--------3-------3----------------------------------
E--------5---------5--------5--------5-------5-------5------------------------------

ANOTHER VERSY BIT
G--------------------------------------------------------------
D------------------------------------------------------------
A--------------3----------5-----------------------------
E-----5---3----------1------5-----------------------------

ORDER
Intro/verse    x 7
Chorus         x 1
Bridge         x 1
Intro/verse    x 2
Other verse    x 4
Chorus         x 1
Bridge         x 1
And the rest... you'll work out what bit it is and how much etc

Enjoy!!?? Love clareyfaery

P.S this is my first one so I'm really sorry, I don't know how to write it properly


Therapy? albums
2003 High Anxiety
2001 Shameless
2000 Suicide Pact: You First
1998 Semi-Detached
1995 Infernal Love
1994 Troublegum
1993 Nurse
1993 Born in a crash
Suicide Pact: You First tabs
03Jam Jar Jail tabbass tab
06Six Mile Water tabbass tab
07Little Tongues First tabbass tab
11Sister tabbass tab

 

1