Search tabs:
Browse artists: 0-9 | A | B | C | D | E | F | G | H | I | J | K | L | M | N | O | P | Q | R | S | T | U | V | W | X | Y | Z
/ Therapy? / Suicide Pact: You First (2000) / Little Tongues First bass tab

(Drop D Tuning)

Intro
G |--------------------------------||     |--------------------------------|
D |--------------------------------||     |--------------------------------|
A |--------------------------------||     |--------------------------------|
D |-0-3-0-x------------------------|| 3x  |-0-3-0---0-3-0---0-3-0---0-3-5--|

Main Riff
G |--------------------------------||     |--------------------------------|
D |--------------------------------||     |--------------------------------|
A |--------------------------------||     |--------------------------------|
D |-3-0---0-3-0---0-3-0---0-5^7-5^7|| 3x  |-3-0---0-3-0---0-3-0---0\7-/-0--|

Verse A
G |--------------------------------||     |--------------------------------|
D |--------------------------------||     |--------------------------------|
A |--------------------------------||     |-------------------------5\-----|
D |-3-0-3-0-3-0-3-0----------------|| 3x  |-7-----6-----5-----4------------|

Pre-Chorus
G |--------------------------------||     |--------------------------------|
D |--------------------------------||     |--------------------------------|
A |-----5---5---------8--8\--------||     |-0-0-0-0-0-0-0-0-0-0-0-0-0-0-0-0|
D |-5-------------8----------------|| 3x  |--------------------------------|

Chorus
G |--------------------------------||     |--------------------------------|
D |--------------------------------||     |---------------------------3----|
A |-5---5-4---3-3-3-5---5-4---3-3-3||     |-5---5-4---3-3-3-5---5-4--------|
D |--------------------------------|| 3x  |--------------------------------|

Verse B
G |--------------------------------||     |--------------------------------|
D |--------------------------------||     |--------------------------------|
A |-------------------------(8\)*--||     |-------------------------5\-----| *) Only play at [02:32]
D |-3-0-3-0-3-5-6-0----(3)*--------|| 3x  |-7-----6-----5-----4------------|


Verse B
G |--------------------------------|--------------------------------|
D |--------------------------------|--------------------------------|
A |-3-5---3-5---3-5---3-5----------|-3-5---3-5---3-5---3-5----------|
D |-------------------------0-0-x--|-------------------------0-0-0-0|

G |--------------------------------|--------------------------------|
D |--------------------------------|--------------------------------|
A |-3-5---3-5---3-5---3-5----------|-3-5---3-5---3-5---3-5----------|
D |-------------------------0-0-x--|-------------------------0------|

[00:10] Intro
[00:22] Main Riff 2x
[00:44] Verse A 2x
[01:xx] Main Riff
[01:16] Verse A 2x
[01:36] Pre-Chorus
[01:57] Chorus 2x (End with low D)
[02:08] Pause (End with a slide from High D to low D)

[02:19] Verse B 2x
[02:41] Pre-Chorus
[03:01] Chorus 2x (End with low D)
[03:12] Pause

[03:22] Chorus 2x (End with low D)
[03:32] Pause (Slide before Outro)
[03:53] Outro


Therapy? albums
2003 High Anxiety
2001 Shameless
2000 Suicide Pact: You First
1998 Semi-Detached
1995 Infernal Love
1994 Troublegum
1993 Nurse
1993 Born in a crash
Suicide Pact: You First tabs
03Jam Jar Jail tabbass tab
06Six Mile Water tabbass tab
07Little Tongues First tabbass tab
11Sister tabbass tab

 

1