Search tabs:
Browse artists: 0-9 | A | B | C | D | E | F | G | H | I | J | K | L | M | N | O | P | Q | R | S | T | U | V | W | X | Y | Z
/ Therapy? / Suicide Pact: You First (2000) / Sister bass tab

(Dropped D Tuning)

Intro
G |--------------------------------|--------------------------------|
D |--------------------------------|--------------------------------|
A |--------------------------------|--------------------------------|
D |-2-2-x---2-2-x---2-2-x---2-2-x--|-2-2-x---2-2-x---2-2-x---2-2-x--|

Verse & Chorus A                                                      Slide Ending
G |--------------------------------|--------------------------------| |--------------------------------|
D |-----------------------------5--|------------------\7-7-7-7-7-7-7| |------------------\7/---\7/-----|
A |-5-7-7-5-7-7-5-7-7-5-7-7-5-7---7|-3-5-5-3-5-5-3-5-5--------------| |-3-5-5-3-5-5-3-5-5--------------|
E |--------------------------------|--------------------------------| |--------------------------------|

Verse & Chorus B
G |--------------------------------|--------------------------------|
D |-----------------------------5--|--------------------------------|
A |-5-7-7-5-7-7-5-7-7-5-7-7-5-7---7|-3-5-5-3-5-5-3-5-5-0-0-0-0-0-0-0|
E |--------------------------------|--------------------------------|

Post Chorus
G |--------------------------------|--------------------------------||
D |-------5-5-5--------------------|-------5-5-5--------------------||
A |-7-7-7-------5-5-5-3-3-3-2-2-3-3|-7-7-7-------5-5-5-3-3-3-2-2----||
E |--------------------------------|--------------------------------|| 2x

Break
G |--------------------------------|--------------------------------||
D |--------------------------------|--------------------------------||
A |--------------------------------|--------------------------------||
E |-2-2-2-2-2-2-2-2-2-2-2-2-2-2-2-2|-2-2-2-2-2-2-2-2-2-2-2-2-2-2-2-2|| 2x

Verse C
G |--------------------------------|--------------------------------||
D |--------------------------------|--------------------------------||
A |--------------------------------|-3-5-5-3-5-5-3-5-5-3-5-5-3-5-5-5||
E |-0-2-2-0-2-2-0-2-2-0-2-2-0-2-2-2|--------------------------------|| 3x

G |--------------------------------|--------------------------------|
D |--------------------------------|------------------\7-7-7-7-5-4-5|
A |--------------------------------|-3-5-5-3-5-5-3-5-5--------------|
E |-0-2-2-0-2-2-0-2-2-0-2-2-0-2-2-2|--------------------------------|

Outro
G |--------------------------------|--------------------------------||
D |--------------------------------|--------------------------------||
A |-5-7-7-5-7-7-5-7-7-5-7-7-5-7-7-7|-3-5-5-3-5-5-3-5-5-3-5-5-3-5-5-5||
E |--------------------------------|--------------------------------|| 2x


[00:19] Intro 2x
[00:34] Verse A,A,A,a
[01:02] Verse B,Slide Ending,B,A
[01:30] Chorus A,A

[01:44] Verse A,A
[01:59] Verse B,Slide Ending,B,A
[02:27] Chorus B,A
[02:41] Post Chorus

[02:56] Break
[03:24] Verse C
[03:52] Chorus B,A,A,A
[04:20] Outro
[04:34] Post Chorus


Therapy? albums
2003 High Anxiety
2001 Shameless
2000 Suicide Pact: You First
1998 Semi-Detached
1995 Infernal Love
1994 Troublegum
1993 Nurse
1993 Born in a crash
Suicide Pact: You First tabs
03Jam Jar Jail tabbass tab
06Six Mile Water tabbass tab
07Little Tongues First tabbass tab
11Sister tabbass tab

 

1