Search tabs:
Browse artists: 0-9 | A | B | C | D | E | F | G | H | I | J | K | L | M | N | O | P | Q | R | S | T | U | V | W | X | Y | Z
/ Therapy? / Troublegum (1994) / Brainsaw bass tab

Verse
G |--------------------------------|--------------------------------|
D |--------------------------------|-------------------------2------|
A |-2-------2---2-2---2-2---5---3--|-2-------2---2-2---2-2-------3--|
E |--------------------------------|--------------------------------|

Chorus
G |--------------------------------|--------------------------------||
D |--------------------------------|--------------------------------||
A |-7---5---7---\-------2-------3--|-----3---3----------------------||
E |--------------------------------|-----------------3---2---3------|| 3x

G |--------------------------------|--------------------------------|
D |--------------------------------|-----------------3---2---3------|
A |-7---5---7---\-------2-------3--|-----3---3----------------------|
E |--------------------------------|--------------------------------|

Break A
G |--------------------------------|--------------------------------||
D |--------------------------------|--------------------------------||
A |--------------------------------|--------------------------------||
E |-0---0---7---0-3---3-5---3---5--|-0---0---7---0-3---3-5---3---5--|| 6x

Break B
G |--------------------------------|--------------------------------|
D |--------------------------------|--------------------------------|
A |-5---5---5---1-1---1-1---1------|-5---5---5---0-0---0-0---0------|
E |--------------------------------|--------------------------------|

G |--------------------------------|--------------------------------|
D |--------------------------------|--------------------------------|
A |-5---5---5---1-1---1-1---1------|-5---5---5----------------------|
E |--------------------------------|-------------3-3---3-3---3------|


[00:00] Verse 4x
[00:14] Chorus
Do this 3 times

[01:28] Break A
[01:55] Break B 2x

[02:09] Verse 6x
[02:30] Chorus 2x
[02:56] Break (First bar only twice)

(You are my sunshine...)


Therapy? albums
2003 High Anxiety
2001 Shameless
2000 Suicide Pact: You First
1998 Semi-Detached
1995 Infernal Love
1994 Troublegum
1993 Nurse
1993 Born in a crash
Troublegum tabs
01Knives tabbass tab
02Screamager tabbass tab
03Hellbelly tabbass tab
04Stop It You're Killing Me tabbass tab
05Nowhere tabbass tab
06Die Laughing tabbass tab
07Unbeliever tabbass tab
08Trigger Inside tabbass tab
10Isolation tabbass tab
11Turn tabbass tab
14Brainsaw tabbass tab

 

1