Search tabs:
Browse artists: 0-9 | A | B | C | D | E | F | G | H | I | J | K | L | M | N | O | P | Q | R | S | T | U | V | W | X | Y | Z
/ Therapy? / Troublegum (1994) / Knives bass tab

Knives
Therapy?


G||------------------|------------------|----------------------|
D||------------------|------------------|----------------------|
A||------------------|------------------|----------------------|
E||------------------|------------------|--1--1--1--0----------|



------------------|----------------------|------------------|
------------------|----------------------|------------------|
------------------|----------------------|------------------|
------------------|--1--1--1--0----------|------------------|



----------------------|------------------|----------------------|
----------------------|------------------|----------------------|
----------------------|------------------|----------------------|
--1--1--1--0----------|------------------|--1--1--1--0----------|



------------------|-------------------------|--------------------------|
------------------|-------------------------|--------------------------|
------------------|-------------------------|--------------------------|
------------------|--1--1--1--0----0--3--0--|--0--0--3--0--0--0--3--0--|



-------------------------|--------------------------|-------------------------|
-------------------------|--------------------------|-------------------------|
-------------------------|--------------------------|-------------------------|
--1--1--1--0----0--3--0--|--0--0--3--0--0--0--3--0--|--1--1--1--0----0--3--0--|



--------------------------|-------------------------|--------------------------|
--------------------------|-------------------------|--------------------------|
--------------------------|-------------------------|--------------------------|
--0--0--3--0--0--0--3--0--|--1--1--1--0----0--3--0--|--0--0--3--0--0--0--3--0--|



-----------------------|-----------------------|----------------------|
-----------------------|-----------------------|----------------------|
-----------------------|--3--------------------|----------7--7--7--5--|
--3----5------5--5--5--|-------3------3--3--3--|----------------------|



--------------------------|-----------------------|-----------------------|
--------------------------|-----------------------|-----------------------|
--7--7--7--5--7--7--7--5--|-----------------------|--3--------------------|
--------------------------|--3----5------5--5--5--|-------3------3--3--3--|



----------------------|------------------|----------------------|
----------------------|------------------|----------------------|
----------------------|------------------|----------------------|
--1--1--1--0----------|------------------|--1--1--1--0----------|



------------------|-------------------------|--------------------------|
------------------|-------------------------|--------------------------|
------------------|-------------------------|--------------------------|
------------------|--1--1--1--0----0--3--0--|--0--0--3--0--0--0--3--0--|



-------------------------|--------------------------|-------------------------|
-------------------------|--------------------------|-------------------------|
-------------------------|--------------------------|-------------------------|
--1--1--1--0----0--3--0--|--0--0--3--0--0--0--3--0--|--1--1--1--0----0--3--0--|



--------------------------|-------------------------|--------------------------|
--------------------------|-------------------------|--------------------------|
--------------------------|-------------------------|--------------------------|
--0--0--3--0--0--0--3--0--|--1--1--1--0----0--3--0--|--0--0--3--0--0--0--3--0--|



-------------------------|--------------------------|-------------------------|
-------------------------|--------------------------|-------------------------|
-------------------------|--------------------------|-------------------------|
--1--1--1--0----0--3--0--|--0--0--3--0--0--0--3--0--|--1--1--1--0----0--3--0--|



--------------------------|-------------------------|--------------------------|
--------------------------|-------------------------|--------------------------|
--------------------------|-------------------------|--------------------------|
--0--0--3--0--0--0--3--0--|--1--1--1--0----0--3--0--|--0--0--3--0--0--0--3--0--|



-------------------------|--------------------------|-----------------------|
-------------------------|--------------------------|-----------------------|
-------------------------|--------------------------|-----------------------|
--1--1--1--0----0--3--0--|--0--0--3--0--0--0--3--0--|--3----5------5--5--5--|



-----------------------|----------------------|--------------------------|
-----------------------|----------------------|--------------------------|
--3--------------------|----------7--7--7--5--|--7--7--7--5--7--7--7--5--|
-------3------3--3--3--|----------------------|--------------------------|



-----------------------|-----------------------|----------------------|
-----------------------|-----------------------|----------------------|
-----------------------|--3--------------------|----------------------|
--3----5------5--5--5--|-------3------3--3--3--|--1--1--1--0----------|



------------------|-------------------------|--------------------------|
------------------|-------------------------|--------------------------|
------------------|-------------------------|--------------------------|
------------------|--1--1--1--0----0--3--0--|--0--0--3--0--0--0--3--0--|



-------------------------|--------------------------|-------------------------|
-------------------------|--------------------------|-------------------------|
-------------------------|--------------------------|-------------------------|
--1--1--1--0----0--3--0--|--0--0--3--0--0--0--3--0--|--1--1--1--0----0--3--0--|



--------------------------|-------------------------|--------------------------|
--------------------------|-------------------------|--------------------------|
--------------------------|-------------------------|--------------------------|
--0--0--3--0--0--0--3--0--|--1--1--1--0----0--3--0--|--0--0--3--0--5--5--5--5--|



--------------------------|-------------------------|----------------------|
--------------------------|-------------------------|----------------------|
--------------------------|-------------------------|----------------------|
--5--5--5--5--5--5--5--5--|--7--7--7--5----5--5--5--|--1--1--1--0----------|



------------------|----------------------|------------------|
------------------|----------------------|------------------|
------------------|----------------------|------------------|
------------------|--1--1--1--0----------|------------------|



----------------------|------------------|----------------------|
----------------------|------------------|----------------------|
----------------------|------------------|----------------------|
--1--1--1--0----------|------------------|--1--1--1--0----------|



------------------|-------------------------|--------------------------|
------------------|-------------------------|--------------------------|
------------------|-------------------------|--------------------------|
------------------|--1--1--1--0----0--3--0--|--0--0--3--0--0--0--3--0--|



-------------------------|--------------------------|-------------------------|
-------------------------|--------------------------|-------------------------|
-------------------------|--------------------------|-------------------------|
--1--1--1--0----0--3--0--|--0--0--3--0--0--0--3--0--|--1--1--1--0----0--3--0--|



--------------------------|-------------------------|--------------------------|
--------------------------|-------------------------|--------------------------|
--------------------------|-------------------------|--------------------------|
--0--0--3--0--0--0--3--0--|--1--1--1--0----0--3--0--|--0--0--3--0--0--0--3--0--|



-----------------------|-----------------------|----------------------|
-----------------------|-----------------------|----------------------|
-----------------------|--3--------------------|----------7--7--7--5--|
--3----5------5--5--5--|-------3------3--3--3--|----------------------|



--------------------------|-----------------------|-----------------------|
--------------------------|-----------------------|-----------------------|
--7--7--7--5--7--7--7--5--|-----------------------|--3--------------------|
--------------------------|--3----5------5--5--5--|-------3------3--3--3--|



----------------------|--------------------------|-----------------------|
----------------------|--------------------------|-----------------------|
----------7--7--7--5--|--7--7--7--5--7--7--7--5--|-----------------------|
----------------------|--------------------------|--3----5------5--5--5--|



-----------------------|----------------------|--------------------------|
-----------------------|----------------------|--------------------------|
--3--------------------|----------7--7--7--5--|--7--7--7--5--7--7--7--5--|
-------3------3--3--3--|----------------------|--------------------------|



-----------------------|-----------------------|----------------------||
-----------------------|-----------------------|----------------------||
-----------------------|--3--------------------|----------------------||
--3----5------5--5--5--|-------3------3--3--3--|--1--1--1--0----------||


Therapy? albums
2003 High Anxiety
2001 Shameless
2000 Suicide Pact: You First
1998 Semi-Detached
1995 Infernal Love
1994 Troublegum
1993 Nurse
1993 Born in a crash
Troublegum tabs
01Knives tabbass tab
02Screamager tabbass tab
03Hellbelly tabbass tab
04Stop It You're Killing Me tabbass tab
05Nowhere tabbass tab
06Die Laughing tabbass tab
07Unbeliever tabbass tab
08Trigger Inside tabbass tab
10Isolation tabbass tab
11Turn tabbass tab
14Brainsaw tabbass tab

 

1