Search tabs:
Browse artists: 0-9 | A | B | C | D | E | F | G | H | I | J | K | L | M | N | O | P | Q | R | S | T | U | V | W | X | Y | Z
/ / / bass tab

Therapy - Screamager
Submitted By: Martin
EMail: marcang@maffia.hu

Hi everyone I'm Martin "Huge", I have an amateur rock band here in Hungary
This song is really simple and easy too. So sit next to it and learn it hurry,
'cuz it's song well. Go on Rocker!!!
If you have any correction or question please email me (in English please):
marcang@maffia.hu
Thanx, enjoy it!

    Intro
        Drums
    G   |-----------------|
    D   |-----------------|
    A   |-----------------|
    E   |-------------12\-|

                                                                                Play 2 times
    G|------------------|-----------------|-----------------|------------------|
    D|o-----------------|-----------------|-----------------|-----------------o|
    A|o-----------------|-3-3-3-----------|-----------------|-3-3-3---5-5-5---o|
    E|--0-0-0-----------|-----------------|-0-0-0-----------|------------------|

                                                                                Play 2 times
    G|------------------|-----------------|-----------------|------------------|
    D|o-----------------|-----------------|-----------------|-----------------o|
    A|o-----------------|-3---3---3---3---|-----------------|-3---3---5---5---o|
    E|--0---0---0---0---|-----------------|-0---0---0---0---|------------------|

    G   |-----------------|
    D   |-----------------|
    A   |-3---------------|
    E   |-----------------|
                                                                                Play 2 times
    G|------------------|-----------------|-----------------|------------------|
    D|o-----------------|-----------------|-----------------|-----------------o|
    A|o-7---7---7---7---|-3---3---3---3---|-----------------|-5---5---5---5---o|
    E|------------------|-----------------|-3---3---3---3---|------------------|

        Verse 1
                                                                                Play 2 times
    G|------------------|-----------------|-----------------|------------------|
    D|o-----------------|-----------------|-----------------|-----------------o|
    A|o-----------------|-3-3-3-----------|-----------------|-3-3-3---5-5-5---o|
    E|--0-0-0-----------|-----------------|-0-0-0-----------|------------------|

        Pre chorus
                                                                                Play 2 times
    G|------------------|-----------------|-----------------|------------------|
    D|o-----------------|-----------------|-----------------|-----------------o|
    A|o-----------------|-3---3---3---3---|-----------------|-3---3---5---5---o|
    E|--0---0---0---0---|-----------------|-0---0---0---0---|------------------|

        Chorus
                                                                        Play 2 times
    G|------------------|-----------------|-----------------|------------------|
    D|o-----------------|-----------------|-----------------|-----------------o|
    A|o-7---7---7---7---|-3---3---3---3---|-----------------|-5---5---5---5---o|
    E|------------------|-----------------|-3---3---3---3---|------------------|

        Bridge

    G|-----------------|-----------------|-----------------|-----------------|
    D|-----------------|-----------------|-----------------|-----------------|
    A|-----------------|-3-3-3-----------|-----------------|-3-3-3---5-5-5---|
    E|-0-0-0-----------|-----------------|-0-0-0-----------|-----------------|

        Verse 2

    G|-----------------|-----------------|-----------------|-----------------|
    D|-----------------|-----------------|-----------------|-----------------|
    A|-----------------|-3-3-3-3-3-3-3-3-|-----------------|-0-3-3-3-0-5-5-5-|
    E|-0-0-0-0-0-0-0-0-|-----------------|-0-0-0-0-0-0-0-0-|-----------------|

    G|-----------------|-----------------|-----------------|-----------------|
    D|-----------------|-----------------|-----------------|-----------------|
    A|-----------------|-3-3-3-3-3-3-3-3-|-----------------|-3-3-3---5-5-5---|
    E|-0-0-0-0-0-0-0-0-|-----------------|-0-0-0-0-0-0-0-0-|-----------------|

        Pre chorus
                                                                                Play 2 times
    G|------------------|-----------------|-----------------|------------------|
    D|o-----------------|-----------------|-----------------|-----------------o|
    A|o-----------------|-3---3---3---3---|-----------------|-3---3---5---5---o|
    E|--0---0---0---0---|-----------------|-0---0---0---0---|------------------|

        Chorus
                                                                        Play 2 times
    G|------------------|-----------------|-----------------|------------------|
    D|o----------------|------------------|-----------------|-----------------o|
    A|o-7---7---7---7---|-3---3---3---3---|-----------------|-5---5---5---5---o|
    E|------------------|-----------------|-3---3---3---3---|------------------|

        Guitar Solo
                                                                Play 2 times
    G|------------------|-----------------|-----------------|------------------|
    D|o-----------------|-----------------|-----------------|-----------------o|
    A|o-----------------|-3---3---3---3---|-----------------|-3---3---5---5---o|
    E|--0---0---0---0---|-----------------|-0---0---0---0---|------------------|

        Chorus
                                                                        Play 4 times
    G|------------------|-----------------|-----------------|------------------|
    D|o-----------------|-----------------|-----------------|-----------------o|
    A|o-7---7---7---7---|-3---3---3---3---|-----------------|-5---5---5---5---o|
    E|------------------|-----------------|-3---3---3---3---|------------------|

        Outro
                                                                                Play 2 times
    G|------------------|-----------------|-----------------|------------------|
    D|o-----------------|-----------------|-----------------|-----------------o|
    A|o-7---7---7---7---|-3---3---3---3---|-----------------|-5---5---5---5---o|
    E|------------------|-----------------|-3---3---3---3---|------------------|

    G   |-----------------|
    D   |-----------------|
    A   |-7---------------|
    E   |-----------------|


albums
tabs

 

1