Search tabs:
Browse artists: 0-9 | A | B | C | D | E | F | G | H | I | J | K | L | M | N | O | P | Q | R | S | T | U | V | W | X | Y | Z
/ Therapy? / Troublegum (1994) / Trigger Inside bass tab

(Dropped D)

Comments: I'm not sure about Low D, but the Chorus seems to be very, very low.

Intro
G |--------------------------------|    |--------------------------------|
D |-----------------------3---3-3-3|    |--------------------------------|
A |--------------------------------|    |-----------------0---1---2---3--|
D |-2-2-2---2-2-2---2-2-2----------| 7x |-2-2-2---2-2-2------------------|

Main Riff
G |--------------------------------|    |--------------------------------|
D |--------------------------------|    |--------------------------------|
A |--------------------------------|    |---------------------0x-----0x--|
D |-2-2-5-2-2-5-2-2-5-2-2-5-0-0-7-0| 3x |-2-2-5-2-2-5-2---2-2-----2-2----|

Verse
G |--------------------------------|    |--------------------------------|
D |-2-2-2-2-2-2-2-2-2-2-2-2-0-0-0-0|    |--------------------------------|
A |--------------------------------|    |-2-^-0-0---0-2-3---2-3-2-3-\-5--|
D |--------------------------------| 3x |--------------------------------|

G |--------------------------------|    |--------------------------------|
D |-2-2-2-2-2-2-2-2-2-2-2-2-0-0-0-0|    |--------------------------------|
A |--------------------------------|    |-2-^-0-0---0-2-3---2-3-2--------|
D |--------------------------------| 3x |-------------------------5---4--|

Bridge
G |--------------------------------|--------------------------------|
D |--------------------------------|--------------------------------|
A |-0-0-0-0-0---1---0-0-0-0-0---1--|-0-0-0-0-0---1---0---1---2---3--|
D |--------------------------------|--------------------------------|

Chorus
G |--------------------------------|--------------------------------|
D |--------------------------------|-----------------------------5--|
A |--------------------------------|-------------------------3-3---3| ?
D |-2-2-5-2-2-5-2-2-5-2-2-5-0-0-7-0|-2-2-5-2-2-5-2-2-2-2-5-2--------|

G |--------------------------------|--------------------------------|
D |--------------------------------|--------------------------------|
A |--------------------------------|-2-^-0-0---0-2-3---2-3-2-3-\-5--|
D |-2-2-5-2-2-5-2-2-5-2-2-5-0-0-7-0|--------------------------------|

Solo Part
G |--------------------------------|
D |-2-2-2-2-2-2-2-2-2-2-2-2-2-2-2-2|
A |--------------------------------|
D |--------------------------------|

Break A
G |--------------------------------|--------------------------------|
D |--------------------------------|--------------------------------|
A |-0-0---0-0---0-0---0-0-0-3------|-0-0---0-0---0-0---0-0-0-3---5--|
D |-----------------------------5--|--------------------------------| 4x

G |--------------------------------|
D |--------------------------------|
A |-0-0---0-0---0-0-0---1---2---3--|
D |--------------------------------|


Break B
G |--------------------------------|--------------------------------|--------------------------------|
D |-----2-------2-------2----------|-----2-------2-------2---5-5-4--|-----2-------2-------2----------|
A |-------------------------3-3-5--|--------------------------------|-------------------------3-3-5--|
D |-2-2-----2-2-----2-2------------|-2-2-----2-2-----2-2------------|-2-2-----2-2-----2-2------------|

End first time with
G |--------------------------------|
D |--------------------------------|
A |-2-^-0-0---0-2-3---2-3-2-3-\-5--|
D |--------------------------------|

Second time with
G |--------------------------------|
D |--------------------------------|
A |-2-^-0-0---0-2-3---2-3-2--------|
D |-------------------------5---4--|

Outro
G |--------------------------------|--------------------------------|
D |-2-2---2-2-2-0-5-2-2---2-2-2-0-5|-2-2---2-2-2-0-5-2-2---2-2-2-0-5|
A |--------------------------------|--------------------------------|
D |--------------------------------|--------------------------------| 2x


[00:00] Intro

Block
[00:23] Main Riff
[00:35] Verse
[00:58] Bridge
[01:04] Chorus 2x
End Block

[01:27] Solo Part

Repeat Block

[02:34] Break
[03:20] Chorus 2x
[03:43] Outro


Therapy? albums
2003 High Anxiety
2001 Shameless
2000 Suicide Pact: You First
1998 Semi-Detached
1995 Infernal Love
1994 Troublegum
1993 Nurse
1993 Born in a crash
Troublegum tabs
01Knives tabbass tab
02Screamager tabbass tab
03Hellbelly tabbass tab
04Stop It You're Killing Me tabbass tab
05Nowhere tabbass tab
06Die Laughing tabbass tab
07Unbeliever tabbass tab
08Trigger Inside tabbass tab
10Isolation tabbass tab
11Turn tabbass tab
14Brainsaw tabbass tab

 

1