Search tabs:
Browse artists: 0-9 | A | B | C | D | E | F | G | H | I | J | K | L | M | N | O | P | Q | R | S | T | U | V | W | X | Y | Z
/ / / bass tab

Tom Petty - Don't Do Me Like That
Tabbed By: bass_punker
Tuning: Standard (E A D G)

Most Of Song:
G:-----------------------------|
D:-----------------------------|
A:---------------3-3----5-5----|
E:-3-3----1-1------------------|

Other Part:
G:----------------------------------------------------------------
D:----------------------------------------------------------------
A:----------------3-3-3-3-3-3-3-3---------------------------------
E:-3-3-3-3-3-3-3-3----------------3-3-3-3-3-3-3-3-1-1-1-1-1-1-1-1-

G:------------------------------------------------------|
D:------------------------------------------------------|
A:----------------3-3-3-3-3-3-3-3-5-5-5-5-5-5-5-5--5~~~~|
E:-3-3-3-3-3-3-3-3--------------------------------------|

Tabbed by Collin S.


albums
tabs

 

1