Search tabs:
Browse artists: 0-9 | A | B | C | D | E | F | G | H | I | J | K | L | M | N | O | P | Q | R | S | T | U | V | W | X | Y | Z
/ / / bass tab

Refugee - Tom Petty and the Heartbreakers

Intro/Chorus - use every variation you can think of
||-------------------------------------------------|
||-------------------------------------------------|
||--------------7-7-7----(9)//-------------7---7---|
||--2--2--2-4-5-------0-------2--2-4-5-5h7---7---0-|

Verse - lots of variations here too
||---------------------------|
||-4---4---4---4----2---2----|
||---4---4---4---0----2------|
||---------------------------|

Bridge - I'm pretty sure about the fills, but if
you can figure them out any better, e-mail me at
nkey@ionet.net.
||------------------------------------9/11/9-7-9-7------|
||---------9/11/9-7-9-7----------------------------9//--|
||----------------------9//--0-0-0-0--------------------|
||-0-0-0-0----------------------------------------------|

||-------------------------------------------------|
||---------7/9/7-5-7-5-------------------14--14----|
||-5-5-5-5-------------7//-----------777/--14--14--|
||-------------------------0000-0000---------------|


albums
tabs

 

1