Search tabs:
Browse artists: 0-9 | A | B | C | D | E | F | G | H | I | J | K | L | M | N | O | P | Q | R | S | T | U | V | W | X | Y | Z
/ / / bass tab

BTAB  : Free girl now
ARTIST: Tom Petty and the Heartbreaker
AUTHOR: Charlie (cacaldi@capecod.net)
DATE  : 05/02/99


I'm usually neutral on Tom Petty's work, but I have to say that this song is pretty bad ass!!

INTRO

G--------------------------
D--------------------------
A--0--0--------5-5-5-5-----
E--------3--3--------------


MAIN RIFF

G---------------------------------------
D---------------------------------------
A--0-0-0-0-----3-5-5-5-5-5-5-5-5--------
E----------3-3-------------------0-2-3--

CHORUS

G-----------------------------------------
D------2----------------------------------
A--0-0---0-----3-5-5-5-5-5-5-5-5----------
E----------3-3-------------------0-2-3----


BRIDGE

G------------------------------------------------------------------
D---------------------------------2-2-2-2-2-2-2-2------------------
A--5-5-5-5-5-5-5-5-0-0-0-0-0-0-0-0---------------------------------
E-------------------------------------------------3-3-3-3-3-3-3-3--

Figure where to play them while listening to the song.

Taken from Charlie's Bass tabs http://members.tripod.com/~ccaldi


albums
tabs

 

1