Search tabs:
Browse artists: 0-9 | A | B | C | D | E | F | G | H | I | J | K | L | M | N | O | P | Q | R | S | T | U | V | W | X | Y | Z
/ / / bass tab

(Standard Tuning)

Verse:
----------------------------------
2--2-2--2-2--2-2------------------
------------------3--3-3--3-3--3-3
---------------------------------- x4

Chorus:
----------------------------------
----------------------------------
5--5-5--5-5--5-5------------------
------------------5--5-5--5-5--5-5 x2

After each chorus

----------------------------------
----------------------------------
----------------------------------
7--7-7--7-7--7-7--5--5-5--5-5--5-5

During solo:
--------------------
2--2-2--2-----------
--------------------
----------0--0-0--0-  x1

----------------------------------------
----------------------------------------
3--3-3--3-3--3-3--3--5--5-5--5-5--5-5--5
---------------------------------------- x2


albums
tabs

 

1