Search tabs:
Browse artists: 0-9 | A | B | C | D | E | F | G | H | I | J | K | L | M | N | O | P | Q | R | S | T | U | V | W | X | Y | Z
/ / / bass tab

Tom Petty And The Heartbreakers
 "Free Fallin'" - Bass Tab

Common Time(4/4)
Standard Tuning(EADG)


INTRO:
|---------|-----------8/|-10-------|---------|
|---------|-------------|----------|---------|
|-r-e-s-t-|-r-r-r-r-----|----------|---------|
|---------|-------------|----------|---------|
  1 2 3 4   1 2 3 4 & a   1  2 3 4   1 2 3 4


VERSE 1:
|------------|--------------|
|*-----------|-------------*| (x5 softly)
|*-----1-----|-1-0---3-----*| (x5 normal volume)
|--1---------|--------------|
   1 2 & 3 4   1 & 2 & 3 4


CHORUS/BRIDGE:
|------------|--------------|
|*-----------|-------------*|
|*-----1-----|-1-0---3-----*| (x4)
|--1---------|--------------|
   1 2 & 3 4   1 & 2 & 3 4


VERSE 2:
|-10-------|------------|------------|-----------|
|----------|-----10-----|-10---8-----|-7---5-----|
|----------|------------|------------|-----------|
|----------|------------|------------|-----------|
  1  2 3 4   1 2 &  3 4   1  2 & 3 4   1 2 & 3 4

|-----3-----|-------------|-----3-----|-------------|
|-3---------|-------------|-3---------|-------------|
|-----------|-1-0---3-----|-----------|-1-0---3-----|
|-----------|-------------|-----------|-------------|
  1 2 & 3 4   1 & 2 & 3 4   1 2 & 3 4   1 & 2 & 3 4


VERSE 3:
|-10-------|------------|-10---10-----|-10-----------------|
|----------|-----10-----|-------------|------10---10-10-10-|
|----------|------------|-------------|--------------------|
|----------|------------|-------------|--------------------|
  1  2 3 4   1 2 &  3 4   1  2 &  3 4   1  2 &  3 &  4  &

|-----3-----|-------5-----|-----3-----|-------5---5-5-5-5-|
|-----------|-------------|-3---------|-------------------|
|-----------|-1-0---------|-----------|-1-0---------------|
|-1---------|-------------|-----------|-------------------|
  1 2 & 3 4   1 & 2 & 3 4   1 2 & 3 4   1 & 2 & 3 & 4 e &


END:
        (x4)            (x8 to fade-out)
|-----------|------------|--------------|
|*---------*|*-----------|-------------*|
|*-r-e-s-t-*|*-----1-----|-1-0---3-----*|
|-----------|--1---------|--------------|
   1 2 3 4     1 2 & 3 4   1 & 2 & 3 4

Tabed by: Mike
email: mikey155@aol.com


albums
tabs

 

1