Search tabs:
Browse artists: 0-9 | A | B | C | D | E | F | G | H | I | J | K | L | M | N | O | P | Q | R | S | T | U | V | W | X | Y | Z
/ / / bass tab

#----------------------------------PLEASE NOTE---------------------------------#
#This file is the author's own work and represents their interpretation of the #
#song. You may only use this file for private study, scholarship, or research. #
#------------------------------------------------------------------------------##

-------------------------------------------------------------------------------
			     LOVE IS A LONG ROAD - Tom Petty
-------------------------------------------------------------------------------

Tabbed By : someguy_175
e-mail: someguy_175@hotmail.com

Tuning: EADG

It's Quite Easy to learn, It's off the album "Full Moon Fever"



Main Riff:

G|-----------------------|
D|-----------------------|
A|------5-----------5----|
E|--7-----5----0------5--|

Verse:

G|----------------------------------------|
D|----------------------------------------|
A|-------------5------------------5-------|
E|---77777777----5555---00000000----5555--|

Into Chorus:

G|---------------------------------------------|
D|---------------------------------------------|
A|------------5-------------------5-5----------|
E|--33333333----5555---333333-3-3-----5-5-5-5--|

Chorus:

G|---------------------------------|
D|---------------------------------|
A|---------------------------------|
E|--777777--000000--3h4h5--777777--|

Guitar Solo:

G|-----------------------------------------------------------|
D|-----------------------------------------------------------|
A|-----------------------------------------------------------|
E|--77777777--5555555--3333333333333--77777777--55555555--3--|

Song order:

Main riff X 2
Verse X 2
Into Chorus X 1
Chorus X 3
Verse X 2
Into Chorus X 1
Chorus X 3
Guitar Solo X 1
REST
Main Riff X 2
Verse X 2
Into Chorus X 1
Chorus X 3
Chorus until end then:
G|------------------|
D|------------------|
A|--7-9-7-----------|
E|--------9-7-5-7~--|



| /  slide up
| \  slide down
| h  hammer-on
| p  pull-off
| ~  vibrato
| +  harmonic
| x  Mute note
===============================================================================


albums
tabs

 

1