Search tabs:
Browse artists: 0-9 | A | B | C | D | E | F | G | H | I | J | K | L | M | N | O | P | Q | R | S | T | U | V | W | X | Y | Z
/ / / bass tab

Tom Petty - Into The Great White Open
Tabbed By: king_bass


Tuning: Standard (E A D G)



Intro

G|------------------||
D|------------------|| repeat as needed
A|------------------||
E|-0-0-0-0-0-0-0-0--||


Verse

Play 4 times, then...
G|------------------    |------------------|------------------||
D|------------------    |------------------|------------------||
A|------------------    |------------------|------------------||
E|-0-0-0-0-0-0-0-0--    |-5-5-5-5--3-3-3-3-|-2-2-2-2-3-3-3-3--||


G|------------------|------------------||
D|------------------|------------------||
A|-----------3------|--2-2-3-----------||
E|---3---1----------|--------3-3-3-----||


G|------------------||
D|------------------||
A|--2-2-3-------5---||  played before chorus
E|--------3-3-3-----||


Chorus


G|------------------|------------------||
D|------------------|------------------||
A|---------3-3-3-3--|5-5-5-5-5-5-5-5---||
E|3-3-3-3-----------|------------------||


G|------------------|------------------||
D|------------------|------------------||
A|--------7-7-7-7---|-5-5-5-5----------||
E|3-3-3-3-----------|---------5-5-5-5--||


G|------------------|------------------||
D|------------------|------------------||
A|--------3-3-3-3---|-5-5-5-5-5-5-5-5--||
E|3-3-3-3-----------|------------------||


G|------------------|------------------||
D|------------------|------------------||
A|------------------|------------------||
E|3-3-3-3-1-1-1-1---|-0-0-0--5-5-5-----||


Ending

G|------------------||
D|------------------||
A|-2-2-3------------||  X2
E|-------3-3-3------||


albums
tabs

 

1