Search tabs:
Browse artists: 0-9 | A | B | C | D | E | F | G | H | I | J | K | L | M | N | O | P | Q | R | S | T | U | V | W | X | Y | Z
/ / / bass tab

Tom Petty - Learning To Fly
Tabbed By: king_bass


Tuning: Standard (E A D G)




Verse/Chorus

G|------------------|------------------||
D|--3-3-3-----------|------------------||
A|--------3-3-3-3-3-|0-0-0-------------||
E|------------------|------3-3-3-3-3---||


G|------------------|------------------||
D|------------------|------------------||
A|-------3-3-3-3-3--|-0-0-0------------||
E|-1-1-1------------|-------3-3-3-3-3--||


Right before the solo play:


G|------------------||
D|------------------||
A|------------------||
E|-3-3-3-3-3-3-3-3--||

for the solo play the verse riff


albums
tabs

 

1