Search tabs:
Browse artists: 0-9 | A | B | C | D | E | F | G | H | I | J | K | L | M | N | O | P | Q | R | S | T | U | V | W | X | Y | Z
/ / / bass tab

(h=hammer-on)
(/ or \ = slide)
Standard Tuning
(note: in the beginning there is a long slide up the neck it goes like this....
(take your right hand and use your index and middle finger and put them on the 5th
(fret on the A and D string.....then slide up to the 12th fret.)
(push real hard and keep your left hand on the notes of the intro.....it takes practice)..... it should sound like a chord.
	
                  "INTRO"

G|-9/11----9----7----9---------------------9/11-----|
D|-----------------------------5/12-----------------|
A|-----------------------------5/12-----------------|
E|--------------------------------------------------|
		"VERSE"

G|----------------------------------------------------------|
D|-000---------------------000------------------------------|
A|----------------------------------------------------------|
E|-------000---333---555---------000---333---555---555------|

G|----------------------------------------------|
D|-000------------------------------------------|
A|----------------------------------------------|
E|-------333---000---555---555---555---555------|
		

		"BRIDGE"


G|---------------------------------------------------|
D|-------------------------------------000---000-----|
A|-------------555---222-----------------------------|
E|-333---555---------------333---555-----------------|



G|------------------------------------------------------------------------|
D|------------------------------------------------------------------------|
A|---------005----------005-----------005-----------000---5---5---5---5---|
E|-333--3h4-----333--3h4-----333--3h4-----333--3h4------------------------|



G|-----------------------------------------------------|
D|-0--------------------------0------------------------|
A|-----------------------------------------------------|
E|-------0------3-----5--------------0------3-----5----|

Visit our website at www.marshwoodroad.com	
Questions or comments?  If so, let me know E-MAIL me at
Monch@marshwoodroad.com


albums
tabs

 

1