Search tabs:
Browse artists: 0-9 | A | B | C | D | E | F | G | H | I | J | K | L | M | N | O | P | Q | R | S | T | U | V | W | X | Y | Z
/ / / bass tab

Tom Petty and the Heartbreakers
Breakdown
tabbed using the live dvd - really easy to play,
tabbed by cpf273




Verse
G|---------|
D|-7--5----|
A|---------|
E|---------|
thats all there is to it, just listen to the cd for rythmn!
before the chours slide up the neck, hold the note then slide back down the neck,
but on the bottom string, listen on cd if not sure



Chours
G|----------------------------------------|
D|----------------------------------------|
A|----------------------------------------|
E|--/5-8-1-5-5-8-1-5-5-8-1-5-5-8-1----8/--|

the wee guitar riff (if you wanna show off!)
G|----------------------------|
D|-7-5-7----------------------|
A|-------7*--7-5-7------------|
E|-----------------7* 7-5-7-0*| (* - let ring)


albums
tabs

 

1