Search tabs:
Browse artists: 0-9 | A | B | C | D | E | F | G | H | I | J | K | L | M | N | O | P | Q | R | S | T | U | V | W | X | Y | Z
/ / / bass tab

You Wreck Me - Tom Petty

 main riff/chorus  "rescue me, should I go down"
G|--------------|  |1-------------1-------------|
D|1-------------|  |--1-0-----------1-0---------|
A|--1-0---------|  |-----1-1111111-----1-1111111|
E|-----1-1111111|  |----------------------------|

  prechorus "oh yeah"
G|1----3-----|
D|-----------|
A|-----------|
E|-----------|

  solo (preceded and followed by the main riff)
G|--------------------------------------------------------|
D|----------------------------4----4--------4----4--------|
A|4----4--------4----4----------4-4--4-44444--4-4--4-44444|
E|--4-4--4-44444--4-4--4-44444----------------------------|

  outro riff (x4)
G|--------------|
D|1----1--------|
A|--1-0--1-0----|
E|----------111-|

tabbed by Achilles (blue_sincere@hotmail.com)
The Bass Tab Archive Army


albums
tabs

 

1