Search tabs:
Browse artists: 0-9 | A | B | C | D | E | F | G | H | I | J | K | L | M | N | O | P | Q | R | S | T | U | V | W | X | Y | Z
/ Underoath / The Changing of The Times (2002) / When the Sun Sleeps bass tab

song:when the sun sleeps
band:underoath
email address:freeride_kona_69@hotmail.com




Intro 0:19 - 0:25

G---------------------------------------
D---------------------------------------
A--------------------3~--333------------
D--------------2~-0~--------------------

Pre-verse x 2 0:26 - 0:51

G-------------------------------------------------------
D-------------------------------------------------------
A-----------------------------3333-3333-3333-3333-------
D-2222---0000---2222---0000-----------------------------

Verse x 2 0:52 1:15

G-------------------------------------------------------
D-------------------------------------------------------
A-7777-9999-7777-5555-3333-3333-3333-3333-3333----------
D-------------------------------------------------------

>>>>>>>>>>>pause till 0:15 - 0:19<<<<<<<<<<<<<<<<<<<<<<<<<<<<<

Chorus x 2 1:19 - 1:43

G---------------------------------------------------------------------------------------
D---------------------------------------------------------------------------------------
A-0000000000000000-33333333333333333----------------------------------------------------
D------------------------------------2222222222222222-0000000000000000------------------

Pre-verse  1:53 - 2:09
G-------------------------------------------------------------
D-------------------------------------------------------------
A-------------------------------------------------------------
D-2~-0~-2~-2~-0~-0~--2222-4444-2222-0000---2~-0~-2~-2~-0~-0~--

Verse x 2 2:10 - 2:35
G-------------------------------------------------------------------
D-------------------------------------------------------------------
A-7777--9999--7777--5555--3333--3333--3333--3333--------------------
D-------------------------------------------------------------------

Chorus 2:36 - 3:01 x 2

G---------------------------------------------------------------------------------------
D---------------------------------------------------------------------------------------
A-0000000000000000-33333333333333333----------------------------------------------------
D------------------------------------2222222222222222-0000000000000000------------------

Bridge 3:02 - 3:52 x 2
G------------------------------------------
D------------------------------------------
A-00000000-33333333-7777777777-5555555555--
D------------------------------------------

Chorus 3:53 - 4:44 x 4

G---------------------------------------------------------------------------------------
D---------------------------------------------------------------------------------------
A-0000000000000000-33333333333333333----------------------------------------------------
D------------------------------------2222222222222222-0000000000000000------------------

Breakdown 4:45 - 5:11 x 2
G----------------------------------------------------
D----------------------------------------------------
A----------------------------------------------------
D-7777-7777-10101010-10101010-2222-2222-0000-0000-----

End 5:15 - 5:33

G------------------
D-------2~-0~------
A-0~-3~--------3~--
D------------------


Underoath albums
2004 They're Only Chasing Safety
2002 The Changing of The Times
The Changing of The Times tabs
01When the Sun Sleeps tabbass tab
02Letting Go of Tonight tabbass tab
03A Message for Adrienne tabbass tab
04Never Meant to Break Your Heart tabbass tab
05The Changing of Times tabbass tab
06Angel Below tabbass tab
08Short of Daybreak tabbass tab
09Alone in December tabbass tab

 

1