Search tabs:
Browse artists: 0-9 | A | B | C | D | E | F | G | H | I | J | K | L | M | N | O | P | Q | R | S | T | U | V | W | X | Y | Z
/ Vast / Music For People (2000) / The Gates of Rock 'N' Roll bass tab

Fat ass bass tone for the verse:

G|---------------------------------------------------------------|
D|---------------------------------------------------------------|
A|---------------------------------------------------------------|
E|----------------1-1----/5\--0-0-0-0-0---0--1--0----------------|
B|--3-3-3-3-3---3-----3------------------------------------------|

G|---------------------------------------------------------------|
D|---------------------------------------------------------------|
A|---------------------------------------------------------------|
E|-10-10-10-10-10---10-8-8-8-8-8---8-7-7-7-7-7--7----------------|
B|-------------------------------------------------8-8----8------|

One slight variation every other time through:

G|---------------------------------------------------------------|
D|---------------------------------------------------------------|
A|---------------------------------------------------------------|
E|----------------1-1----/5\--0-0-0-0-0---12--13--12-------------|
B|--3-3-3-3-3---3-----3------------------------------------------|

G|---------------------------------------------------------------|
D|---------------------------------------------------------------|
A|---------------------------------------------------------------|
E|-10-10-10-10-10---10-8-8-8-8-8---8-7-7-7-7-7--7----------------|
B|-------------------------------------------------8-8----8------|

Bridge:

G|---------------------------------------------------------------|
D|---------------------------------------------------------------|
A|---------------------------------------------------------------|
E|--3-3-3-3-3-3-3-3-------------------8-8-8-8-8-7----------------|
B|-------------------3-3-3-3-3-3-3-3--------------5--------------|

G|---------------------------------------------------------------|
D|---------------------------------------------------------------|
A|---------------------------------------------------------------|
E|--3-3-3-3-3-3-3-3--1-1-1-1-0-0-0-0-----------------------------|
B|---------------------------------------------------------------|

Chorus/Heavy Riff:

G|---------------------------------------------------------------|
D|---------------------------------------------------------------|
A|------------------------0----------------------------0---------|
E|-0-1-3-3--3---0-1-3-3-3---3-1--0-1-3-3--3--0-1-3-3-3---3-1-----|
B|---------------------------------------------------------------|

G|---------------------------------------------------------------|
D|---------------------------------------------------------------|
A|------------------------0----------------------------0---------|
E|-0-1-3-3--3---0-1-3-3-3---3-1--0-1-3-3--3--0-1-3-3-3---3-1-0---|
B|---------------------------------------------------------------|


Vast albums
2004 Nude
2000 Music For People
1998 Visual Audio Sensory Theater
Music For People tabs
01The Last One Alive/Angelite tabbass tab
02Free tabbass tab
03I Don't Have Anything tabbass tab
04The Gates of Rock 'N' Roll tabbass tab
06Blue tabbass tab
08A Better Place tabbass tab
12Lady of Dreams tabbass tab

 

1