Search tabs:
Browse artists: 0-9 | A | B | C | D | E | F | G | H | I | J | K | L | M | N | O | P | Q | R | S | T | U | V | W | X | Y | Z
/ / / bass tab

this is my first tab so tell me how i did.


G--------------------------------------------------
D--------------------------------------------------
A-------------------77----------------------------		
E--5-55----8-88-------8-88---------------------

G--------------------------------------------------
D--------------------------------------------------
A-------------------77----------------------------
E--5-55----8-88-------8-88---------------------

G--------------------------------------------------
D--------------------------------------------------
A-------------------77----------------------------
E--5-55----8-88-------8-88---------------------

G-----------------------------------
D-----------------------------------
A-----------------------------------
E--5-55-55--1-3-5---------------

G------------------------------------------------------
D-------------------------------------------------------
A-------------------77-----------7-77-78--7-77-78-
E--5-55----8-88-------8-88--------------------------

G-----------------------------------------------------------
D-----------------------------------------------------------
A-------------------77-----------88---55---777----------
E--5-55----8-88-------8-88----------------------5-55---

G--------------------------------------------------
D--------------------------------------------------
A-------------------77----------------------------
E--5-55----8-88-------8-88---------------------
G-----------------------------------
D-----------------------------------
A-----------------------------------
E--5-55-55--1-3-5---------------

G--------------------------------------------------
D--------------------------------------------------
A-------------------77----------------------------		
E--5-55----8-88-------8-88---------------------

G-----------------------------------
D-----------------------------------
A-----------------------------------
E--5-55-55--1-3-5---------------

G------------------------------------------------------
D-------------------------------------------------------
A-------------------77-----------7-77-78--7-77-78-
E--5-55----8-88-------8-88--------------------------

G-----------------------------------------------------------
D-----------------------------------------------------------
A-------------------77-----------88---55---777----------
E--5-55----8-88-------8-88----------------------5-55---

G--------------------------------------------------
D--------------------------------------------------
A-------------------77----------------------------		
E--5-55----8-88-------8-88---------------------

G----------------------------------
D-----------------------------------
A------------------------------------
E--5-55-55--1-3-5---------------
G-------------------------------------------------------------------------
D-------------------------------------------------------------------------
A---121212121212121212121212121212--12121212121212
E-------------------------------------------------------------------------

G-------------------------------------------------------------------------
D--------------------------------------------------------------------------
A---7-888-7-101010-7-1212121212121212121212121212---
E--------------------------------------------------------------------------

G-------------------------------------------------------------------------
D--------------------------------------------------------------------------
A---7-888-7-101010-7-1212121212121212121212121212---
E--------------------------------------------------------------------------

G--------------------------------------------------------------------------
D--------------------------------------------------------------------------
A---7-888-7-101010-7-12121212121212-------------------------
E--------------------------------------------------------------------------

G--------------------------------------------------------------------------
D--------------------------------------------------------------------------
A---7-888-7-101010-7------------------------------------------------
E---------------------------1212121212121212121212121212---

G--------------------------------------------------
D--------------------------------------------------
A-------------------77----------------------------		
E--5-55----8-88-------8-88---------------------

G--------------------------------------------------
D--------------------------------------------------
A-------------------77----------------------------		
E--5-55----8-88-------8-88---------------------

G--------------------------------------------------
D--------------------------------------------------
A-------------------77----------------------------		
E--5-55----8-88-------8-88---------------------

G--------------------------------------------------
D--------------------------------------------------
A-------------------77----------------------------		
E--5-55----8-88-------8-88---------------------

G--------------------------------------------------
D--------------------------------------------------
A-------------------77----------------------------		
E--5-55----8-88-------8-88---------------------

G----------------------------------
D-----------------------------------
A------------------------------------
E--5-55-55--1-3-5---------------

G------------------------------------------------------
D-------------------------------------------------------
A-------------------77-----------7-77-78--7-77-78-
E--5-55----8-88-------8-88--------------------------

G-----------------------------------------------------------
D-----------------------------------------------------------
A-------------------77-----------88---55---777----------
E--5-55----8-88-------8-88----------------------5-55---

G--------------------------------------------------
D--------------------------------------------------
A-------------------77----------------------------		
E--5-55----8-88-------8-88---------------------
G-----------------------------------------------------------
D-----------------------------------------------------------
A-----------------------------------------------------------
E-5-55-55-5-55-55-5-55-55-5-55-55-5-------------


hope you like it because like i said its my first tab.


albums
tabs

 

1