Search tabs:
Browse artists: 0-9 | A | B | C | D | E | F | G | H | I | J | K | L | M | N | O | P | Q | R | S | T | U | V | W | X | Y | Z
/ / / bass tab

White Stripes- Seven Nation Army

*NB... For some reason I've heard this song played in both Eminor and Fminor...
this tab is in Eminor from the version I downloaded from KazAA and constantly hear
on the radio... however, in the version played in the music video and other places
it is played half a step up... whichever key you prefer to play it in just
translate the figure up one fret (for Fminor) or play as is (Eminor)... with
that... here's the tab...

Intro through verse:
G------------------------------------------------------------------
D------------------------------------------------------------------      x 12
A--7---7--10--7-----------------------------------------------------
E------------------10--8--7----------------------------------------


Pre-Chorus:
G------------------------------------------------------------------
D------------------------------------------------------------------     x 1
A------------------------------------------------------------------
E---3-3-3-3-3-3-3-3-----5-5-5-5-5-5-5-5----------------------------


Chorus:
G-----------------------------------------------------------------------
D-----------------------------------------------------------------------    x 2
A---7---7-10--7-----------------7---7-10--7-----------------------------
E-------------------10--8--7----------------------10--8--10--8-7--------


Post-Chorus:
G--------------------------------------------------------------------
D--------------------------------------------------------------------     x 1
A--------------------------------------------------------------------
E---3-3-3-3-3-3-3-3-----5-5-5-5-5-5-5-5------------------------------

Verse II: Same as Intro/verse I
Prechorus again
Repeat Chorus over guitar solo
At end of guitar solo play the Pre/Post-Chorus Riff
Go back into Intro/verse I pattern
Prechorus yet again
Chorus... oh you should be able to get it from here

Easy? Of course

Complaints?  katabisis@aol.com


albums
tabs

 

1