Search tabs:
Browse artists: 0-9 | A | B | C | D | E | F | G | H | I | J | K | L | M | N | O | P | Q | R | S | T | U | V | W | X | Y | Z
/ / / bass tab

-=The White Strips =-
-=The Hair Near My Finger =-
-=Tabbed by giom:gui.braize@caramail.com=-


Intro/instrumental verse/outro

G-------------------|
D-------------------|
A-----3333-----5555-|
E-5-5------3-3------|

Verse

G------------------|------------------|-------------------|-------------------|
D------------------|------------------|-------------------|-------------------|
A------3---------5-|------3---------5-|-----3333-----5555-|-----3333-----5555-|
E-5---------3------|-5---------3------|-5-5------3-3------|-5-5------3-3------|

Link 1         Link 2         Link 3

G-----------| |-----------|  |-----------|
D-----------| |-----------|  |-----------|
A-----------| |-----------|  |-----------|
E-5-5-5-x-x-| |-5-4-3-x-x-|  |-5-5-5-3-4-|

Chorus

“I get nervous she come around…”
G-----------------------|
D-----------------------|
A-----------------------|
E-3--3-6-—6-5--5-3-3330-|


Song order

Intro  x4
Verse
Link 1 x4
Verse
Link 2 x4
Chorus x4
Link 3 x4
Instrumental Verse x2
Verse
Link 2 x4
Chorus x4
Link 3 x4
Outro  fade out


albums
tabs

 

1