Search tabs:
Browse artists: 0-9 | A | B | C | D | E | F | G | H | I | J | K | L | M | N | O | P | Q | R | S | T | U | V | W | X | Y | Z
/ / / bass tab

Hey, this is my first tab. I didn't see it anywhere so I decided I'd post it. This stuff is a lot of hard work just typing it in here so give respect to the tabbers. Well we all know The White Stripes don't have a bass player :( but here is what I play for this song. It is a little off but I'm just trying to help out a little.

Listen to the song and it will tell you wich ones to slide on.

G:|-------|
D:|-------|
A:|-------|
E:|---5---|  x 16

G:|-----------------------------------|
D:|-----------------------------------|
A:|-----------------------------------|
E:|---5---5---5---5---8---8---8---8---|  x 3

G:|---------------------------------------|
D:|---------------------------------------|
A:|---------------------------------------|
E:|---7---7---7---7---10---10---10---10---|

G:|-----------------------------------|
D:|-----------------------------------|
A:|-----------------------------------|
E:|---5---5---5---5---8---8---8---8---|  x 3

G:|---------------------------------------|
D:|---------------------------------------|
A:|---------------------------------------|
E:|---7---7---7---7---10---10---10---10---|

G:|-----------------------------------|
D:|-----------------------------------|
A:|-----------------------------------|
E:|---5---5---5---5---8---8---8---8---|  x 3

G:|---------------------------------------|
D:|---------------------------------------|
A:|---------------------------------------|
E:|---7---7---7---7---10---10---10---10---|

G:|-----------------------------------|
D:|-----------------------------------|
A:|-----------------------------------|
E:|---5---5---5---5---8---8---8---8---|  x 3

G:|-----------------------------------|
D:|-----------------------------------|
A:|-----------------------------------|
E:|---7---7---7---7---6---6---6---6---|

G:|-----------------------------------|
D:|-----------------------------------|
A:|-----------------------------------|
E:|---5---5---5-5-5---8---8---8-8-8---|  x 3

G:|-----------------------------------|
D:|-----------------------------------|
A:|-----------------------------------|
E:|---7---7---7-7-7---6---6---6-6-6---|

G:|-----------------------|
D:|-----------------------|
A:|-----------------------|
E:|---5-5-5-5---8-8-8-8---|  x 3

G:|-----------------------|
D:|-----------------------|
A:|-----------------------|
E:|---7-7-7-7---6-6-6-6---|

G:|-------|
D:|-------|
A:|-------|
E:|---5---|  x 16

G:|-----------------------------------|
D:|-----------------------------------|
A:|-----------------------------------|
E:|---5---5---5---5---8---8---8---8---|  x 3

G:|---------------------------------------|
D:|---------------------------------------|
A:|---------------------------------------|
E:|---7---7---7---7---10---10---10---10---|

G:|-----------------------------------|
D:|-----------------------------------|
A:|-----------------------------------|
E:|---5---5---5---5---8---8---8---8---|  x 3

G:|-----------------------------------|
D:|-----------------------------------|
A:|-----------------------------------|
E:|---7---7---7---7---6---6---6---6---|

G:|-----------------------------------|
D:|-----------------------------------|
A:|-----------------------------------|
E:|---5---5---5-5-5---8---8---8-8-8---|  x 3


G:|-----------------------------------|
D:|-----------------------------------|
A:|-----------------------------------|
E:|---7---7---7-7-7---6---6---6-6-6---|

G:|-----------------------|
D:|-----------------------|
A:|-----------------------|
E:|---5-5-5-5---8-8-8-8---|  x 7  (After 4th and 6th play |---10---10---|)

G:|-----------------------|
D:|-----------------------|
A:|-----------------------|
E:|---7-7-7-7---6-6-6-6---|

G:|---------------------------------|
D:|---------------------------------|
A:|---------------------------------|
E:|---5-5-5-5---5---5---5---5---5---|

G:|---------------------------------|
D:|---------------------------------|
A:|---------------------------------|
E:|---8-8-8-8---8---8---8---8---8---|

G:|---------------------------------|
D:|---------------------------------|
A:|---------------------------------|
E:|---5-5-5-5---5---5---5---5---5---|

G:|----------------------------------------|
D:|----------------------------------------|
A:|----------------------------------------|
E:|---8-8-8-8---8---8---8---8----10---10---|

G:|-------------------------------------------|
D:|-------------------------------------------|
A:|-------------------------------------------|
E:|---5-5-5-5-------------8-8-8-8---10---10---|

G:|-----------------------------------|
D:|-----------------------------------|
A:|-----------------------------------|
E:|---5---5---5---5---5---5---5---5---|

G:|-----------------------------------------------------------|
D:|-----------------------------------------------------------|
A:|-----------------------------------------------------------|
E:|---8---8---8---8---8---8---8---10---10---5-5-5-5-----------|


albums
tabs

 

1