Search tabs:
Browse artists: 0-9 | A | B | C | D | E | F | G | H | I | J | K | L | M | N | O | P | Q | R | S | T | U | V | W | X | Y | Z
/ 12 Stones / 12 Stones (2002) / Fade Away guitar tab

Guitar drop C
C G C F A# D#
						  
Intro/Verse Riff
C--------7----7-7---7---------10----10-10----10- 
G-----5----5------5---------8-----8--------8----- 
C--0---------------------8----------------------

first time
C--------7----7-7-----7----------7-----7-7-------  			
G-----5----5------5------------5-----5-----------		
C--5------------------------5---------------5-7—

second time
C  --------7----7-7-----7-------7-7--
G  -----5----5-------5----------5-5--
C  --5--------------------------5-5--
			repeat
	

Chorus 1
C---0-0---8-8---5-5-x-5-9-x-9-9-
G---0-0---8-8---5-5-x-5-9-x-9-9-
C---0-0---8-8---5-5-x-5-9-x-9-9-


Chorus 2
C---0-0-x-x---x-8-8-x-x---x-5-5-x-x-x-5-9-x-9-9-
G---0-0-x-x---x-8-8-x-x---x-5-5-x-x-x-5-9-x-9-9-
C---0-0-x-x---x-8-8-x-x---x-5-5-x-x-x-5-9-x-9-9-


I didn’t take the time to figure out the solo
but I believe the bridge is this:

Bridge
C---0-3-2-0-0-3-2-0-0-3-2-0---3-3
G---0-3-2-0-0-3-2-0-0-3-2-0---3-3
C---0-3-2-0-0-3-2-0-0-3-2-0---3-3 etc

Outro – palm muted
C---0-3-2-0-3-2-0-3-0-0-
G---0-3-2-0-3-2-0-3-0-0-
C---0-3-2-0-3-2-0-3-0-0-


12 Stones albums
2004 Potter's Field
2002 12 Stones
12 Stones tabs
01Crash tabbass tab
02Broken tabbass tab
03The Way I Feel tabbass tab
04Open Your Eyes tabbass tab
05Home tabbass tab
06Fade Away tabbass tab
07Back Up tabbass tab
08Soulfire tabbass tab
09In My Head tabbass tab
10Running Out of Pain tabbass tab
11My Life tabbass tab
12Eric's Song tabbass tab

 

1