Search tabs:
Browse artists: 0-9 | A | B | C | D | E | F | G | H | I | J | K | L | M | N | O | P | Q | R | S | T | U | V | W | X | Y | Z
/ / / guitar tab

Intro (Clean)
D|-----------------------------------------------------------------------------------|
A|-----------------------------------------------------------------------------------|
F|-----------------------------------------------------------------------------------|
C|------9-9-10-10-9-9-------9-9-10-10-9-9-----9-9-10-10-9-9-----12-12-10-10-9-9------|
G|--7-7------------------------------------------------------------------------------|
C|--------------------10-10---------------7-7---------------0-0----------------------|
Pm  . . . . .  .  . . .  .  . . .  .  . . . . . . .  .  . . . . .  .  .  .  . .

Intro (Clean-Distortion)
D|-----------------------------------------------------------------------------------|
A|-----------------------------------------------------------------------------------|
F|-----------------------------------------------------------------------------------|
C|-------9-9-10-10-9-9---------9-9-10-10-9-9-------9-9-10-10-9-9--0-0--12-12-10-10-9*|
G|--7-7-----------------------------------------------------------0-0----------------|
C|----------------------10-10-----------------7-7-----------------0-0----------------|
Pm  . .  . . .  .  . .  .  .   . . .  .  . .  . .  . . .  .  . .  ^
                                                                  distortion comes
                                                                      in here

Chorus (Distortion)
D|-----------------------------------------------------------------------------------|
A|-----------------------------------------------------------------------------------|
F|--------------------5-5-7-7-5-5-4-----------------------14-14-12-12-11-------------|
C|---2-2-0-2-2-2-0-2--5-5-7-7-5-5-4--7-7-7-5-7-7-7-5-7-0--x--x--x--x--x--------------|
G|---2-2-0-2-2-2-0-2--3-3-5-5-3-3-2--7-7-7-5-7-7-7-5-7-0--12-12-10-10-9--------------|
C|---2-2-0-2-2-2-0-2-----------------7-7-7-5-7-7-7-5-7-0-----------------------------|

Chorus part 2 (Distortion)
D|-----------------------------------------------------------------------------------|
A|-----------------------------------------------------------------------------------|
F|-----------------------------------------------------------------------------------|
C|---2--4--5--5-0--7-7-7--7-7--5-5--5-5-5-5------------------------------------------|
G|---2--4--5--5-0--7-7-7--7-7--5-5--5-5-5-5------------------------------------------|
C|---2--4--5--5-0--7-7-7--7-7--5-5--5-5-5-5------------------------------------------|

Chorus part 2 cont. (Distortion)
D|-----------------------------------------------------------------------------------|
A|-----------------------------------------------------------------------------------|
F|-----------------------------------------------------------------------------------|
C|---2--4--5--5-0--7-7-7--7-7--5-5---------------------------------------------------|
G|---2--4--5--5-0--7-7-7--7-7--5-5---------------------------------------------------|
C|---2--4--5--5-0--7-7-7--7-7--5-5---------------------------------------------------|
                                 ^
                                 let ring.

Verse (Clean)
D|-----------------------------------------------------------------------------------|
A|-----------------------------------------------------------------------------------|
F|-----------------------------------------------------------------------------------|
C|------9-9-10-10-9-9-------9-9-10-10-9-9-----9-9-10-10-9-9-----12-12-10-10-9-9------|
G|--7-7------------------------------------------------------------------------------|
C|--------------------10-10---------------7-7---------------0-0----------------------|
Pm  . . . . .  .  . . .  .  . . .  .  . . . . . . .  .  . . . . .  .  .  .  . .

Verse part 2 (Clean-Distortion)
D|-----------------------------------------------------------------------------------|
A|-----------------------------------------------------------------------------------|
F|-----------------------------------------------------------------------------------|
C|-------9-9-10-10-9-9---------9-9-10-10-9-9-------9-9-10-10-9-9--12-11*-------------|
G|--7-7------------------------------------------------------------------------------|
C|----------------------10-10-----------------7-7------------------------------------|
Pm  . .  . . .  .  . .  .  .   . . .  .  . .  . .  . . .  .  . .  ^   ^
                                                                  Distortion

Chorus (Distortion)
D|-----------------------------------------------------------------------------------|
A|-----------------------------------------------------------------------------------|
F|--------------------5-5-7-7-5-5-4-----------------------14-14-12-12-11-------------|x2
C|---2-2-0-2-2-2-0-2--5-5-7-7-5-5-4--7-7-7-5-7-7-7-5-7-0--x--x--x--x--x--------------|
G|---2-2-0-2-2-2-0-2--3-3-5-5-3-3-2--7-7-7-5-7-7-7-5-7-0--12-12-10-10-9--------------|
C|---2-2-0-2-2-2-0-2-----------------7-7-7-5-7-7-7-5-7-0-----------------------------|

Chorus part 2 (Distortion)
D|-----------------------------------------------------------------------------------|
A|-----------------------------------------------------------------------------------|
F|-----------------------------------------------------------------------------------|
C|---2--4--5--5-0--7-7-7--7-7--5-5--5-5-5-5------------------------------------------|
G|---2--4--5--5-0--7-7-7--7-7--5-5--5-5-5-5------------------------------------------|
C|---2--4--5--5-0--7-7-7--7-7--5-5--5-5-5-5------------------------------------------|

Chorus part 2 cont. (Distortion)
D|-----------------------------------------------------------------------------------|
A|-----------------------------------------------------------------------------------|
F|-----------------------------------------------------------------------------------|
C|---2--4--5--5-0--7-7-7--7-7--5-5---------------------------------------------------|
G|---2--4--5--5-0--7-7-7--7-7--5-5---------------------------------------------------|
C|---2--4--5--5-0--7-7-7--7-7--5-5---------------------------------------------------|
                                 ^
                                 let ring.

Bridge (Distortion)
D|-----------------------------------------------------------------------------------|
A|-----------------------------------------------------------------------------------|
F|-----------------------------------------------------------------------------------|x4
C|---2-2-2--2-2-2--2-2-2--2-0--------------------------------------------------------|
G|---2-2-2--2-2-2--2-2-2--2-0--------------------------------------------------------|
C|---2-2-2--2-2-2--2-2-2--2-0--------------------------------------------------------|

Bridge part 2 (Distortion)
D|-----------------------------------------------------------------------------------|
A|-----------------------------------------------------------------------------------|
F|-----------------------------------------------------------------------------------|
C|---2-2-2--2-2-2--2-2-2-0-0-0-2-2-2--2-2-2--2-2-2-0-0-0-----------------------------|
G|---2-2-2--2-2-2--2-2-2-0-0-0-2-2-2--2-2-2--2-2-2-0-0-0-----------------------------|
C|---2-2-2--2-2-2--2-2-2-0-0-0-2-2-2--2-2-2--2-2-2-0-0-0-----------------------------|

Bridge part 2 cont. (Distortion)
D|-----------------------------------------------------------------------------------|
A|-----------------------------------------------------------------------------------|
F|-----------------------------------------------------------------------------------|
C|---2-2-2--2-2-2--2-2-2-------------------------------------------------------------|
G|---2-2-2--2-2-2--2-2-2-------------------------------------------------------------|
C|---2-2-2--2-2-2--2-2-2-------------------------------------------------------------|


Chorus (Distortion)
D|-----------------------------------------------------------------------------------|
A|-----------------------------------------------------------------------------------|
F|--------------------5-5-7-7-5-5-4-----------------------14-14-12-12-11-------------|x2
C|---2-2-0-2-2-2-0-2--5-5-7-7-5-5-4--7-7-7-5-7-7-7-5-7-0--x--x--x--x--x--------------|
G|---2-2-0-2-2-2-0-2--3-3-5-5-3-3-2--7-7-7-5-7-7-7-5-7-0--12-12-10-10-9--------------|
C|---2-2-0-2-2-2-0-2-----------------7-7-7-5-7-7-7-5-7-0-----------------------------|

Chorus part 2 (Distortion)
D|-----------------------------------------------------------------------------------|
A|-----------------------------------------------------------------------------------|
F|-----------------------------------------------------------------------------------|
C|---2--4--5--5-0--7-7-7--7-7--5-5--5-5-5-5------------------------------------------|
G|---2--4--5--5-0--7-7-7--7-7--5-5--5-5-5-5------------------------------------------|
C|---2--4--5--5-0--7-7-7--7-7--5-5--5-5-5-5------------------------------------------|

Chorus part 2 cont. (Distortion)
D|-----------------------------------------------------------------------------------|
A|-----------------------------------------------------------------------------------|
F|-----------------------------------------------------------------------------------|
C|---2--4--5--5-0--7-7-7--7-7--5-5---------------------------------------------------|
G|---2--4--5--5-0--7-7-7--7-7--5-5---------------------------------------------------|
C|---2--4--5--5-0--7-7-7--7-7--5-5---------------------------------------------------|
                                 ^
                                 let ring.

Bridge (Distortion)
D|-----------------------------------------------------------------------------------|
A|-----------------------------------------------------------------------------------|
F|-----------------------------------------------------------------------------------|x4
C|---2-2-2--2-2-2--2-2-2--2-0--------------------------------------------------------|
G|---2-2-2--2-2-2--2-2-2--2-0--------------------------------------------------------|
C|---2-2-2--2-2-2--2-2-2--2-0--------------------------------------------------------|

Bridge part 2 (Distortion)
D|-----------------------------------------------------------------------------------|
A|-----------------------------------------------------------------------------------|
F|-----------------------------------------------------------------------------------|
C|---2-2-2--2-2-2--2-2-2-0-0-0-2-2-2--2-2-2--2-2-2-0-0-0-----------------------------|
G|---2-2-2--2-2-2--2-2-2-0-0-0-2-2-2--2-2-2--2-2-2-0-0-0-----------------------------|
C|---2-2-2--2-2-2--2-2-2-0-0-0-2-2-2--2-2-2--2-2-2-0-0-0-----------------------------|

Bridge part 2 cont. (Distortion)
D|-----------------------------------------------------------------------------------|
A|-----------------------------------------------------------------------------------|
F|-----------------------------------------------------------------------------------|
C|---2-2-2--2-2-2--2-2-2-0-0-0-2-2-2--2-2-2--2-2-2-0-0-0-----------------------------|
G|---2-2-2--2-2-2--2-2-2-0-0-0-2-2-2--2-2-2--2-2-2-0-0-0-----------------------------|
C|---2-2-2--2-2-2--2-2-2-0-0-0-2-2-2--2-2-2--2-2-2-0-0-0-----------------------------|


Outro (Distortion)
D|-----------------------------------------------------------------------------------|
A|-----------------------------------------------------------------------------------|
F|-----------------------------------------------------------------------------------|
C|---2-2-2--2-2-2--2-2-2-2-2-2--2--2-2-2--2-2-2--2-2-2-2--2--------------------------|
G|---2-2-2--2-2-2--2-2-2-2-2-2--2--2-2-2--2-2-2--2-2-2-2--2--------------------------|
C|---2-2-2--2-2-2--2-2-2-2-2-2--2--2-2-2--2-2-2--2-2-2-2--2--------------------------|

*=pinched harmonic

There u go , sounds correct to me.

this was my 1st tab so hope its ok.

some of the pinched harmonics i missed out, working on them and will put them
on when i work them out. ;D

please rate.

thx



albums
tabs

 

1