Search tabs:
Browse artists: 0-9 | A | B | C | D | E | F | G | H | I | J | K | L | M | N | O | P | Q | R | S | T | U | V | W | X | Y | Z
/ / / guitar tab

Song: Destroy The Map
 Artist: 36 Crazyfists
 Album: A Snow Capped Romance
 Guitarist: Steve Holt
 Transcribed by: Ryan
 Email: halfmyself@hotmail.com
 Website: www.synecure.tk

 Tuning: CGCFAD

 . - Palm mute
 / - Slide Up
 \\ - Slide Down
 ~ - Let Note Ring
 x - Muted String
 ^ - Bend note

 Intro
|-9-9-9-9-9--9-9-9-9-9--9-9-9--1212121212-1414141414-121212-|
|1010101010-1010101010-101010--1010101010-1010101010-101010-|
|1111111111-1111111111-111111--1111111111-1111111111-111111-|
|-----------------------------------------------------------|
|-----------------------------------------------------------|
|-----------------------------------------------------------|

|-9~--12~--14~--12~-|
|10~--10~--10~--10~-|
|11---11---11---11--|
|-------------------|
|-------------------|
|-------------------|

 Verse
|----------------------|
|----------------------|
|-------------9---9/11-|
|---7-11--0-7---7------| x2
|-9--------------------|
|----------------------|

|------------------------------------------------------|
|------------------------------------------------------|
|--------------9---11---12--1111111111111111-1313-1414-|
|-11-7---7-11----7----7------9-9-9-9-9-9-9-9-1111-1212-|
|------9--------------------^----------this bit x2---^-|
|------------------------------------------------------|

 Pre Chorus
|----------------------------------------|
|----------------------------------------|
|-------------------------------6-6-7-6--|
|-99-11-99-11-9-14-11---222-000-x-x-x-x--| x2
|-99--9-99--9-9--9--9---222-000-4-4/5-4--|
|-----------------------222-000----------|
  ..  . ..  . .  .  .

|---------------------------------------------|
|---------------------------------------------|
|---------------------------------------------|
|-99-11-99-11-9-14-11--666-77-6-7-444-55-4-5--|
|-99--9-99--9-9--9--9--777-77-7-7-555-55-5-5--|
|---------------------------------------------|
  ..  . ..  . .  .  .  ... .. . . ... .. . .
 ^this bit has more notes in but is roughly the same, just play it faster
  i know all of this bit is wrong.... owell. Play it 2 times but on the last time,
  on the last 2 notes change them to this:

|-----|
|-----|
|-----|
|-4-5-|
|-4-5-|
|-4-5-|

 Then into the chorus:
|--------------------------------------------------------------------|
|--------------------------------------------------------------------|
|---14\\13-13-13\\11-11-11-11/13-11---14\\13/14-16-14-14\\13/14\\13--|
|-4--x---x--x--x---x--x--x--x--x--x-0--x---x--x--x--x--x---x--x---x--|
|-4-12\\11-11-11\\-9--9--9--9/11--9-0-12\\11/12-14-12-12\\11/12\\11--|
|-4---------------------------------0--------------------------------|

|---------------------------------------------------------------|
|---------------------------------------------------------------|
|---14\\13-13-13\\11-11-11-11/13-11------14\\13/14-16-14-16/18--|
|-4--x---x--x--x---x--x--x--x--x--x--0-0--x---x--x--x--x--x--x--|
|-4-12\\11-11-11\\-9--9--9--9/11--9--0-0-12\\11/12-14-12-14/16--|
|-4----------------------------------0-0------------------------|
                                   ^pause on this 1

 The Second Verse has a 2nd guitar part but its really hard to hear
 So! i havent tabbed it.


 Bridge
|-----------------------------------------------------------------|
|-----------------------------------------------------------------|
|-----------------------------------------------------------------|
|-7-5---4-7-0-0-00-0--4-7-0-0--0-7-9--4-7-0-0-00-0--4-7-0-0-99----|
|-7-5---4-7-0-0-00-0--4-7-0-0--0-7-9--4-7-0-0-00-0--4-7-0-0-99----|
|-7-5---4-7-0-0-00-0--4-7-0-0--0-7-9--4-7-0-0-00-0--4-7-0-0-99-7^-|


 The little soloy bit:

|--14~-16~/17\\12~/14\\9--|
|-----------------------|
|-----------------------|
|-----------------------|
|-----------------------|
|-----------------------|

 Thing after it:
|-----------|
|-----------|
|-----------|
|-9-7--7-5--|
|-9-7--7-5--|
|-9-7--7-5--|

 End on:
|-9-9-9-9-9--9-9-9-9-9--|
|1010101010-1010101010--|
|1111111111-1111111111--|
|-----------------------|
|-----------------------|
|-----------------------|

Like 36 Crazyfists? Visit: http://www.fisteclipseuk.cjb.net


albums
tabs

 

1