Search tabs:
Browse artists: 0-9 | A | B | C | D | E | F | G | H | I | J | K | L | M | N | O | P | Q | R | S | T | U | V | W | X | Y | Z
/ / / guitar tab

The Heart and The Shape by 36 Crazyfists

                                              {*Note, this is tab can only be
used for private study and not to be used for financial gain....concerning the
fact that selling this tab would be a violation of copywrite law*}

 This may not be the exact tab note for note, but its pretty dang close.. plus
this is the easiest fingerings i could find... but this song friggin rules...
and its easy to pick up on...trust me, you'll get it up to speed i no time!

h= hold note
p=pull off
/=slide
Intro

d||--------------------------------------------------------||
A||---------6p5-5--6p5-5--5----6p5-5---6p5-5---------------||
F||--5/7h--------------------------------------------------|| (2x)
C||--------------------------8h-------7h-------------------||
G||--------------------------------------------------------||
C||--------------------------------------------------------||


Riff 1

D||--------------------------------------------------------||
A||--------------------------------------------------------||
F||--------------------------------------------------------||
C||--0--3p2-2--3p2-2--3p2--8-88888--7-77-777---------------||
G||--0--3p2-2--3p2-2--3p2--8-88888--7-77-777---------------||
C||--0--3p2-2--3p2-2--3p2--8-88888--7-77-777---------------||


Riff 2

D||----------------------------------------------------13p12||
A||---------------------------------------------------------||
F||--------------------------------------------10p9---9-----||
C||--8p0-0-000-0--8p0-0-0-000--8p0-0-000-0---8------7-------||
G||--8p0-0-000-0--8p0-0-0-000--8p0-0-000-0---8------7-------||
C||--8p0-0-000-0--8p0-0-0-000--8p0-0-000-0---8------7-------||


Riff 3

d||--------------------------------------------------------||
A||---------6p5-5--6p5-5--5----6p5-5---6p5-5---------------||
F||--------------------------------------------------------||
C||-----0h--------------------8h-------7h------------------||
G||--------------------------------------------------------||
C||--------------------------------------------------------||


Riff 4

d||--------------------------------------------------------||
A||--------------------------------------------------------||
F||--------------------------------------------------------||
C||--8p0-0-0--8p0-0-0-5-8--8p0-0-0--8p0-0-0--3-5-----------||
G||--8p0-0-0--8p0-0-0-5-8--8p0-0-0--8p0-0-0--3-5-----------||
C||--8p0-0-0--8p0-0-0-5-8--8p0-0-0--8p0-0-0--3-5-----------||

d||--------------------------------------------------------||
A||--------------------------------------------------------||
F||--------------------------------------------------------||
C||--------------------------------------------------------||
G||--------------------------------------------------------||
C||--8p0-0-0--8p0-0-0-5-8--8p0-0-0--8p0-0-0--3-5-----------||


Riff 5

d||--------------------------------------------------------||
A||--------------------------------------------------------||
F||--------------------------------------------------------||
C||--8/0--8/0--5-8--8/0-8/0--3-5---------------------------||
G||--8/0--8/0--5-8--8/0-8/0--3-5---------------------------||
C||--8/0--8/0--5-8--8/0-8/0--3-5---------------------------||




And in order the song goes:

Intro
Riff 1(x2)
Riff 2(x2)
Riff 3(x2)
Riff 1(x2)
Riff 4
Riff 2(x2)
Riff 3(x2)
Riff 1(x2)
Riff 4
Riff 5(x4)
Riff 3(x2)
Riff 1(x2)
Riff 4
Riff 5(x4)

And thats how its played.....


albums
tabs

 

1