Search tabs:
Browse artists: 0-9 | A | B | C | D | E | F | G | H | I | J | K | L | M | N | O | P | Q | R | S | T | U | V | W | X | Y | Z
/ / / guitar tab

36 crazyfists - installing the catheter
Tabbed By: Beef_Gubb2
Email: Beef_Gubb2@hotmail.co.uk

Tuning: Drop C (C G C F A D)

new album next spring and i cant wait lets hope some of there new stuff is as
good as this song, if not better.

intro
D|----------------------------------------------------------------||
A|----------------------------------------------------------------||
F|-----4---4-------4---4------4---4------4---4----------------------------||
C|---0---0-------0---0------0---0------0---0------------------------------||
G|-4-----------4----------4----------4--------------------------------||
C|----------------------------------------------------------------||

main riff
D|----------------------------------------------------------------||
A|----------------------------------------------------------------||
F|----------------------------------------------------------------||
C|-44444446--0-00-00-7-77-79------x2--------------------------------------------------||
G|-44444446--0-00-00-7-77-79------------------------------------------------------||
C|-44444446--0-00-00-7-77-79------------------------------------------------------||

verse x2
D|----------------------------------------------------------------||
A|----------------------------------------------------------------||
F|-----4--4-------4--4----4-4---4--4----4-44-44--4-44-44----------------||
C|---0--0-------0--0-----0-0---0--0-----x-xx-xx--x-xx-xx-----------------||
G|-4-----------4--------4-----4---------4-44-44--4-44-44-------------------||
C|--------------------------------------0-00-00--0-00-00----------------------||

D|----------------------------------------------------------------||
A|----------------------------------------------------------------||
F|11-1111-1111---11-1111-11-13------------------------------------------------------||
C|-x--x-x--x-x----x--x-x--x-x-----------------------------------------------||
G|-9--9-9--9-9----9--9-9--9-11-----------------------------------------------||
C|-0--0-0--0-0----0--0-0--0-0-----------------------------------------------||

chorus
D|------------------------------|---------------|-------------------||
A|------------------------------|---------------|-------------------||
F|---------------------------   |   1111-1211---|1111-12-11---------------------------||
C|-44444446--0-00-00-7-77-79--x2|    9-9--9-9---|-7 7--7--7-------------------------------------------||
G|-44444446--0-00-00-7-77-79--  |    9-9--9-9-x2|-7 7--7--7-------------------------------------------||
C|-44444446--0-00-00-7-77-79--  |    9-9--9-9---|-7 7--7--7-----------------------------------------||


D|-------|---------------------------------------------------------||
A|-77-87-|-------------------------------------------------------------||
F|-xx-xx-|-------------------------------------------------------------||
C|-55-55-|------play the last 2 sections twice through-------------------------------------------------------||
G|-55-55-|-------------------------------------------------------------||
C|-55-55-|-------------------------------------------------------------||


intalude type thingy
D|----------------------------------------------------------------||
A|----------------------------------------------------------------||
F|----44-----44----44----44-----------------------------------------------||
C|-00-xx--00-xx-00-xx-00-xx-------------------------------------------------------||
G|-00-44--00-44-00-44-00-44-------------------------------------------------------||
C|-00-----00----00----00--------------------------------------------------||


verse x2
D|----------------------------------------------------------------||
A|----------------------------------------------------------------||
F|-----4--4-------4--4----4-4---4--4----4-44-44--4-44-44----------------||
C|---0--0-------0--0-----0-0---0--0-----x-xx-xx--x-xx-xx-----------------||
G|-4-----------4--------4-----4---------4-44-44--4-44-44-------------------||
C|--------------------------------------0-00-00--0-00-00----------------------||

D|----------------------------------------------------------------||
A|----------------------------------------------------------------||
F|11-1111-1111---11-1111-11-13------------------------------------------------------||
C|-x--x-x--x-x----x--x-x--x-x-----------------------------------------------||
G|-9--9-9--9-9----9--9-9--9-11-----------------------------------------------||
C|-0--0-0--0-0----0--0-0--0-0-----------------------------------------------||

chorus
D|------------------------------|---------------|-------------------||
A|------------------------------|---------------|-------------------||
F|---------------------------   |   1111-1211---|1111-12-11---------------------------||
C|-44444446--0-00-00-7-77-79--x2|    9-9--9-9---|-7 7--7--7-------------------------------------------||
G|-44444446--0-00-00-7-77-79--  |    9-9--9-9-x2|-7 7--7--7-------------------------------------------||
C|-44444446--0-00-00-7-77-79--  |    9-9--9-9---|-7 7--7--7-----------------------------------------||


D|-------|---------------------------------------------------------||
A|-77-87-|-------------------------------------------------------------||
F|-xx-xx-|-------------------------------------------------------------||
C|-55-55-|------play the last 2 sections twice through-------------------------------------------------------||
G|-55-55-|-------------------------------------------------------------||
C|-55-55-|-------------------------------------------------------------||


Middle

D|----------------------------------------------------------------||
A|----------------------------------------------------------------||
F|----6---6---6---6---6------2---1---2---4---2---1---------------------------||
C|--0---0---0---0---0----0-0---0---0---0---0---0------------------------------||
G|----------------------------------------------------------------||
C|----------------------------------------------------------------||

bridge part
D|----------------------------------------------------------------||
A|----------------------------------------------------------------||
F|-6-----6----6------6-------6----------------------------------------||
C|--0000-- 0000--0000---0000--0000-----------------------------------------------------||
G|--0000-- 0000--0000---0000--0000-----------------------------------------------------||
C|--0000-- 0000--0000---0000--0000-----------------------------------------------------||

chorus
D|------------------------------|---------------|-------------------||
A|------------------------------|---------------|-------------------||
F|---------------------------   |   1111-1211---|1111-12-11---------------------------||
C|-44444446--0-00-00-7-77-79--x2|    9-9--9-9---|-7 7--7--7-------------------------------------------||
G|-44444446--0-00-00-7-77-79--  |    9-9--9-9-x2|-7 7--7--7-------------------------------------------||
C|-44444446--0-00-00-7-77-79--  |    9-9--9-9---|-7 7--7--7-----------------------------------------||


D|-------|---------------------------------------------------------||
A|-77-87-|-------------------------------------------------------------||
F|-xx-xx-|-------------------------------------------------------------||
C|-55-55-|------play the last 2 sections twice through-------------------------------------------------------||
G|-55-55-|-------------------------------------------------------------||
C|-55-55-|-------------------------------------------------------------||


end part
D|----------------------------------------------------------------||
A|----------------------------------------------------------------||
F|----------------------------------------------------------------||
C|----------------------------------------------------------------||
G|----------------------------------------------------------------||
C|-0-000000--0-000000--0-000000--0-00000--------------------------------------------------||


D|-----------------------------slide up to each fret-----------------------------------||
A|----------------------------------------------------------------||
F|------------------------------6-77-4--------------------------------||
C|-0-00000--0-00000--0-00000--0-x-xx-x---x2------------------------------------------------||
G|-0-00000--0-00000--0-00000--0-4-55-2---------------------------------------------------||
C|-0-00000--0-00000--0-00000--0------------------------------------------------------||


D|-------------------------\-finish on-----------||
A|-------------------------\-------------------||
F|------------------6------\---6----------------||
C|-0-00000--0-00000-x---x4-\---x----------------||
G|-0-00000--0-00000-4------\---4----------------||
C|-0-00000--0-00000--------\-------------------||


albums
tabs

 

1