Search tabs:
Browse artists: 0-9 | A | B | C | D | E | F | G | H | I | J | K | L | M | N | O | P | Q | R | S | T | U | V | W | X | Y | Z
/ / / guitar tab

by:LeperMessiah      song for the fisherman

 Tuning: DGCFAD

 ~ - let note ring
 / - Slide up
|-------------------------------------------------------------------------|
|-------------------------------------------------------------------------|
|---------7------------------7----------------7----------------7----------|
|-----9-7------9-7-0-----9-7-----9-7-0----9-7-----9-7-0----9-7-----9-7-0--|
|-0/7--------7---------7-------7------------------------------------------|
|---------------------------------------8-------8--------8-------8--------|

This riff is played throughout the whole song... if you want to stay in CGCFAD tuning
move the 8s up to 10s  but its easier to play this way. There is also a 2nd guitar part
which is played over this riff:

|--------------------------------------------------------------|
|--------------------------------------------------------------|
|--------------------------------------------------------------|
|-9h10p9-9~---9h10p9-9--7h9p7-7--5h7p5--4~-5~--4h5p4-4--2h4p2~-|
|--------------------------------------------------------------|
|--------------------------------------------------------------


albums
tabs

 

1