Search tabs:
Browse artists: 0-9 | A | B | C | D | E | F | G | H | I | J | K | L | M | N | O | P | Q | R | S | T | U | V | W | X | Y | Z
/ / / guitar tab

36 crazyfists- waterhaul
Album-a snow capped romance
Tuning- drop C tuning (drop d then one step down)
tabbed by- gerardo rey-montana
apr-2004

intro (clean) x4
D-------------------------------------------------------------
A-------------------------------------------------------------
F-------------------------------------------------------------
C------0-0---0-0---0------------------------------------------
G-------------------------------------------------------------
C----0-----0-----0--------------------------------------------


then..
D-------------------------------------------------------------
A-------------------------------------------------------------
F-------------------------------------------------------------
C-------------------------------------------------------------
G-----8-12---8-12---12---7-10---7-10---10---5-8---5-8---8-----
C---0------0-------0----0------0------0----0----0-----0-------

continued..
D-------------------------------------------------------------
A-------------------------------------------------------------
F-------------------------------------------------------------
C-------------------------------------------------------------
G-----3-7---7h8p7---5-----------------------------------------
C---0-----0-------0-------------------------------------------


D-------------------------------------------------------------
A-------------------------------------------------------------
F-----------10-10-10----------9-9-9-9---------10--10-10-------
C--000-000-0-x--x--x--000-000-x-x-x-x--000-000-x-0-x--x-------
G--000-000-0-8--8--8--000-000-7-7-7-7--000-000-8-0-8--8-------
C--000-000-0----------000-000----------000-000---0------------
 pm... ... .          ... ...          ... ...   .

continued..
D-------------------------------------------------------------
A-------------------------------------------------------------
F------------14-14-14-15--------------------------------------
C----000-000--x--x--x--x--------------------------------------
G----000-000-12-12-12-13--------------------------------------
C----000-000--------------------------------------------------
   pm... ...


GUITAR 1
D-----------------------------------------------------
A-----------------------------------------------------
F-----------------------------------------------------
C---3------3------3------3------3------3------3-------
G---3------3------3------3------3------3------3-------
C---3------3------3------3------3------3------3-------
 pm .      .      .      .      .      .      .

GUITAR 2
D-------------------------------------------------------------
A-------------------------------------------------------------
F-------------------------------------------------------------
C--11-11-11-11-11-11-11--13--13--13--9-9-9-9-9-9-9-5-5-5-5-5-5
G---X--X--X--X--X--X--X---X---X---X--X-X-X-X-X-X-X-X-X-X-X-X-X
C---9--9--9--9--9--9--9--11--11--11--7-7-7-7-7-7-7-3-3-3-3-3-3
each note is strummed very fast

cirko69@hotmail.com


albums
tabs

 

1