Search tabs:
Browse artists: 0-9 | A | B | C | D | E | F | G | H | I | J | K | L | M | N | O | P | Q | R | S | T | U | V | W | X | Y | Z
/ / / guitar tab

Tuning: CGCFAD

 . - Palm mute
 P.h - Pinch Harmonic

Intro
|---------------------------------------------------------------|
|---------------------------------------------------------------|
|---------------------------------------------------------------|
|-0-0-0--8-7-8--00-0-00--8-7-8--0-0-0--8-7-8-00-0-00-10-12-10---|
|-0-0-0--8-7-8--00-0-00--8-7-8--0-0-0--8-7-8-00-0-00--8-10--8---|
|-0-0-0--8-7-8--00-0-00--8-7-8--0-0-0--8-7-8-00-0-00--8-10--8---|
  . . .         .. . ..         . . .        .. . ..

Fill
|---------|
|---------|
|---------|
|-000-0---|
|-000-0---|
|-000-0---|
  ...

Verse
|-----------------------------------------------------------------|
|-----------------------------------------------------------------|
|-----------------------------------------------------------------|
|-0-0-0--8-7-8--00-0-00----------0-0-0--8-7-8--00-0-00-10-12-10---|  x2
|-0-0-0--8-7-8--00-0-00--8--7----0-0-0--8-7-8--00-0-00--8-10--8---|
|-0-0-0--8-7-8--00-0-00----------0-0-0--8-7-8--00-0-00--8-10--8---|
  . . .         .. . ..  ^  ^p.h . . .         .. . ..

Tip: Pinch Harmonics are alot easier to do if you bend the string as you hit it
     then add some vibrato.

Fill 2
|--------------------|
|--------------------|
|--------------------|
|-77-7-7--8-0-8------| x4
|-77-7-7--8-0-8------|
|-77-7-7--8-0-8------|

Pre Chorus
|----------------------------------------------------------------|
|----------------------------------------------------------------|
|-----------------------10-9-10----------------------------------|
|-0-0-0--8-7-8--00-0-00--x-x--x--0-0-0--8-7-8-00-0-00-10-12-10---|
|-0-0-0--8-7-8--00-0-00--8-7--8--0-0-0--8-7-8-00-0-00--8-10--8---|
|-0-0-0--8-7-8--00-0-00----------0-0-0--8-7-8-00-0-00--8-10--8---|
  . . .         .. . ..          . . .        .. . ..

Chorus
|-----------------------------------------------------------------------------------
|-----------------------------------------------------------------------------------
|-15-14--14--15-14--14--10-9-9-10-9--9---15-14--14--15-14--14----------10-9-9-10-9-9
|--x--x---x---x--x---x---x-x-x--x-x--x-0--x--x---x---x--x---x-797-810-8-x-x-x--x-x-x
|-13-12--12--13-12--12---8-7-7--8-7--7-0-13-12--12--13-12--12-777-8-8-8-8-7-7--8-7-7
|--------------------------------------0----------------------777-8-8-8-------------

------------------------------------|
------------------------------------|
----15-14--14--15-14--14------------|
-0---x--x---x---x--x---x--797-810-8-|
-0--13-12--12--13-12--12--777-8-8-8-|
-0------------------------777-8-8-8-|

 You can work out the order yourselfs.... i havent got round to workingout the bridge yet
 but its something like this:
|-----------------------|
|-----------------------|
|-----------------------|
|-3-0-xxx-----10-12-----|
|-3-0-xxx-ect--8-10-----|
|-3-0-xxx------8-10-----|


PLEASE TAKE TIME TO VISIT MY SITE FOR FREE BACKSTAGE PASSES TO CONCERTS:
http://concerts.ticketguide.org


albums
tabs

 

1