Search tabs:
Browse artists: 0-9 | A | B | C | D | E | F | G | H | I | J | K | L | M | N | O | P | Q | R | S | T | U | V | W | X | Y | Z
/ / / guitar tab

tune in Drop-C (C-G-C-F-A-D)



Intro

*the intro has two guitars, just play Guitar 1 and it sounds fine.


Guitar 1 - played with a bit of effect and echo
D--------------------------------------------------------------------
A--------------------------------------------------------------------
F-7-7-7---8-8-8-8-8----7-(7)-(7)------7-7-7---8-8-8-8-8----7-(7)-(7)-
C--------------------------------------------------------------------
G-5-5-5---6-6-6-6-6----5-(5)-(5)------5-5-5---6-6-6-6-6----5-(5)-(5)-
C--------------------------------------------------------------------
the parentheses are the echoes


Guitar 2 - played with a really strong phaser
D---------------------------------------------------------------------
A---------------------------------------------------------------------
F-7-7-7---8-8-8-8-8----7--------------7-7-7---8-8-8-8-8----5----------
C---------------------------------------------------------------------
G-5-5-5---6-6-6-6-6----5--------------5-5-5---6-6-6-6-6----3----------
C---------------------------------------------------------------------


Intro continued (band kicks in)

D-------------------------------------------
A-------------------------------------------
F-------------------------------------------
C-0-0-0--1-1--4-4-----3-3-3--4-4--1-1-------
G-0-0-0--1-1--4-4-----3-3-3--4-4--1-1-------
C-0-0-0--1-1--4-4-----3-3-3--4-4--1-1-------


Verse - played same as intro with effect and echo

D--------------------------------------------------------------------
A--------------------------------------------------------------------
F-7-7-7---8-8-8-8-8----7-(7)-(7)------7-7-7---8-8-8-8-8----7-(7)-(7)-
C--------------------------------------------------------------------   2x
G-5-5-5---6-6-6-6-6----5-(5)-(5)------5-5-5---6-6-6-6-6----5-(5)-(5)-
C--------------------------------------------------------------------

D-------------------------------------------
A-------------------------------------------
F-------------------------------------------
C-0-0-0-0-1-1-4-4-----3-3-3-3-4-4-1-1-------
G-0-0-0-0-1-1-4-4-----3-3-3-3-4-4-1-1-------
C-0-0-0-0-1-1-4-4-----3-3-3-3-4-4-1-1-------
 PM . .  . .  . .     . . . . . . . .


Chorus

D-------------------------------------------
A-------------------------------------------
F-------------------------------------------
C-0-0-0--1-1--4-4-----3-3-3--4-4--1-1-------
G-0-0-0--1-1--4-4-----3-3-3--4-4--1-1-------
C-0-0-0--1-1--4-4-----3-3-3--4-4--1-1-------
MARK MY WORDS!!


Bridge

D------------------------------------|------------------------------------
A------------------------------------|------------------------------------
F-7-------------------------10----6--|--7-------------------------10----6-
C-7-----3-----7------8------10----6--|--7-----3-----7------8------10----6-
G-5-----3-----7------8-------8----4--|--5-----3-----7------8-------8----4-
C-------3-----7------8---------------|--------3-----7------8--------------
 DIS   LO   CATE    YOUR               SELF!


Bridge - continued
Guitar1

D----------------------------------------------------------------------
A----------------------------------------------------------------------
F----------------------------------------------------------------------
C-7-7-7-7-7-7-7-7--8-8-8-8-8-8-8-8--7-7-7-7-7-7-7-7--3-3-3-3-3-3-3-3---
G-7-7-7-7-7-7-7-7--8-8-8-8-8-8-8-8--7-7-7-7-7-7-7-7--3-3-3-3-3-3-3-3---
C-7-7-7-7-7-7-7-7--8-8-8-8-8-8-8-8--7-7-7-7-7-7-7-7--3-3-3-3-3-3-3-3---
                   This  is  enough  poison  for  meeeeee .....

Guitar2

D------------------------------------------------------------------------------
A------------------------------------------------------------------------------
F-14-14-14-14-14-14-14-14/12-12-12-12/14-14-14/10-10-10-10-10-10/9-9-9-9/10-10-
C------------------------------------------------------------------------------
G-12-12-12-12-12-12-12-12/10-10-10-10/12-12-12/-8--8--8--8--8--8/7-7-7-7/-8--8-
C------------------------------------------------------------------------------


PLEASE TAKE TIME TO VISIT MY SITE FOR FREE BACKSTAGE PASSES TO CONCERTS:
http://concerts.ticketguide.org


albums
tabs

 

1