Search tabs:
Browse artists: 0-9 | A | B | C | D | E | F | G | H | I | J | K | L | M | N | O | P | Q | R | S | T | U | V | W | X | Y | Z
/ / / guitar tab

36 Crazyfists
Slit Wrist Theory
Tabbed by Jeremy

tuning c G C F A D

Intro/verse: (echo effects)
|----------------------------------|
|----------------------------------|x8
|------------------------------5---|
|-5--8-----7----5--5--8-----7----3-| ( On the sixth time repeating this dont
|-5-----6-----3----------6---------|  hit the three, slid up from five to open. )
|-5--------------------------------|

     Pre Chorus:
|---| |---------------|  |------------------|
|---| |---------------|x3|------------------|
|---| |---------------|  |------------------|
|-5-| |-3h555-3h5-3h5-|  |-0--1--3--4-0-3-4-|
|-5-| |-3h555-3h5-3h5-|  |-0--1--3--4-0-3-4-|
|-5-| |-3h555-3h5-3h5-|  |-0--1--3--4-0-3-4-|   (x2)
    "get the f*** out..."

|----------------|
|----------------|
|----------------|
|-0--1--3--4-0-3-|
|-0--1--3--4-0-3-|
|-0--1--3--4-0-3-|

Chorus: 1st guitar:
|------------------------------------------------------------------|
|------------------------------------------------------------------|x2
|----------------------------------8-8-8885-5-555-8-8-888----------|
|-55555555555555558888888888888888-8-8-8885-5-555-8-8-8888-888-8-6-|
|-55555555555555558888888888888888-6-6-6663-3-333-6-6-6668-888-8-6-|
|-55555555555555558888888888888888-----------------------8-888-8-6-|
"lace me up..."          "...still looking..."

2nd guitar:
|------------------------------------------------------------------|
|--8-11-10-11-1011---11-13-10-10-----------------------------------|x2
|--x--x--x--x--x-x10--x--x--x--x---8-8-8885-5-555-8-8-888----------|
|--5--8--7--8--7-8-x--8-10--7--7---8-8-8885-5-555-8-8-8888-888-8-6-|
|------------------8---------------6-6-6663-3-333-6-6-6668-888-8-6-|
|--------------------------------------------------------8-888-8-6-|

2nd Verse: (echo effects)
|----------------------------------|
|----------------------------------|x5
|------------------------------5---|
|-5--8-----7----5--5--8-----7----3-| ( On the third time repeating this dont
|-5-----6-----3----------6---------|  hit the three, slid up from five to open. )
|-5--------------------------------|

Pre Chorus:
|---| |---------------|  |------------------|
|---| |---------------|x3|------------------|
|---| |---------------|  |------------------|
|-5-| |-3h555-3h5-3h5-|  |-0--1--3--4-0-3-4-|
|-5-| |-3h555-3h5-3h5-|  |-0--1--3--4-0-3-4-|
|-5-| |-3h555-3h5-3h5-|  |-0--1--3--4-0-3-4-|   (x2)
     "get the f*** out..."

|----------------|
|----------------|
|----------------|
|-0--1--3--4-0-3-|
|-0--1--3--4-0-3-|
|-0--1--3--4-0-3-|

Chorus: 1st guitar:
|-------------------------------------------------------------------|
|-------------------------------------------------------------------|x2
|----------------------------------8-8-8885-5-5555-8-8-888----------|
|-55555555555555558888888888888888-8-8-8885-5-5555-8-8-8888-888-8-6-|
|-55555555555555558888888888888888-6-6-6663-3-3333-6-6-6668-888-8-6-|
|-55555555555555558888888888888888------------------------8-888-8-6-|
"lace me up..."          "...still looking..."

2nd guitar:
|-------------------------------------------------------------------|
|--8-11-10-11-1011---11-13-10-10------------------------------------|x2
|--x--x--x--x--x-x10--x--x--x--x---8-8-8885-5-5555-8-8-888----------|
|--5--8--7--8--7-8-x--8-10--7--7---8-8-8885-5-5555-8-8-8888-888-8-6-|
|------------------8---------------6-6-6663-3-3333-6-6-6668-888-8-6-|
|---------------------------------------------------------8-888-8-6-|

Breakdown:
|-------------------------------------------------------------|
|-------------------------------------------------------------|x2
|-------------------------------------------------------------|
|-5-5-5-3-6-6-6-3-5-5-5-3-6-6-6-3-5-5-5-3-6-6-6-3-5-5-5-3-6-1-|
|-5-5-5-3-6-6-6-3-5-5-5-3-6-6-6-3-5-5-5-3-6-6-6-3-5-5-5-3-6-1-|
|-5-5-5-3-6-6-6-3-5-5-5-3-6-6-6-3-5-5-5-3-6-6-6-3-5-5-5-3-6-1-|
"braided conversations.."

|---------------|  |------------------|
|---------------|x3|------------------|
|---------------|  |------------------|
|-3h555-3h5-3h5-|  |-0--1--3--4-0-3-4-|
|-3h555-3h5-3h5-|  |-0--1--3--4-0-3-4-|
|-3h555-3h5-3h5-|  |-0--1--3--4-0-3-4-|   (x4)
"get the f*** out..."

|----------------||------------------||-----------------|
|----------------||------------------||-----------------|
|----------------||------------------||-----------------|
|-0--1--3--4-0-3-||-0--1--3--4-0-3-4-||-0--1--333333444-|
|-0--1--3--4-0-3-||-0--1--3--4-0-3-4-||-0--1--333333444-|
|-0--1--3--4-0-3-||-0--1--3--4-0-3-4-||-0--1--333333444-|

Chorus: 1st guitar:
|-------------------------------------------------------------------|
|-------------------------------------------------------------------|x2
|----------------------------------8-8-8885-5-5555-8-8-888----------|
|-55555555555555558888888888888888-8-8-8885-5-5555-8-8-8888-888-8-6-|
|-55555555555555558888888888888888-6-6-6663-3-3333-6-6-6668-888-8-6-|
|-55555555555555558888888888888888------------------------8-888-8-6-|
"lace me up..."          "...still looking..."

2nd guitar:
|-------------------------------------------------------------------|
|--8-11-10-11-1011---11-13-10-10------------------------------------|x2
|--x--x--x--x--x-x10--x--x--x--x---8-8-8885-5-5555-8-8-888----------|
|--5--8--7--8--7-8-x--8-10--7--7---8-8-8885-5-5555-8-8-8888-888-8-6-|
|------------------8---------------6-6-6663-3-3333-6-6-6668-888-8-6-|
|---------------------------------------------------------8-888-8-6-|

Outro: (echo effects)
|----------------------------------|  |---|
|----------------------------------|x5|---|
|------------------------------5---|  |---|
|-5--8-----7----5--5--8-----7----3-|  |-5-|
|-5-----6-----3----------6---------|  |-5-|
|-5--------------------------------|  |-5-|

email corrections to me at (x_mutt_x@yahoo.com)


albums
tabs

 

1