Search tabs:
Browse artists: 0-9 | A | B | C | D | E | F | G | H | I | J | K | L | M | N | O | P | Q | R | S | T | U | V | W | X | Y | Z
/ / / guitar tab

Artist: 50 Cent feat. Eminem
Song Name: Patiently Waiting
Album: Get Rich or Die Tryin'
Tabbed By: Sayan
Tuning: Standard

This is track 3 from 50 Centís new cd.  This is how you play the song on guitar. Donít make any of the notes ring. Just play this throughout the whole song besides for the bridge part. Play this along with the song to know exactly how long to play each note.

Intro/Verse/Chorus:

E:--------------------------------------|
B:--------------------------------------|
G:--------------------------------------|
D:--4-2-4--5-4-5--7-5-7--5-4-5----------|
A:--------------------------------------|
E:--------------------------------------|

Bridge: Start playing this about 2 minutes and 10 seconds into the song when Eminem is singing. Play this part and then go back to the verse.

E:-14----10---14----10---14----10---15--14---12--14---10--12---9--10---7ó9h10p9-|
B:----12---------12---------12--------------------------------------------------|
G:------------------------------------------------------------------------------|
D:------------------------------------------------------------------------------|
A:------------------------------------------------------------------------------|
E:------------------------------------------------------------------------------|

E:-14----10---14----10---14----10---15--14---12--14---10--12---9--10---7ó9h10p9-|
B:----12---------12---------12--------------------------------------------------|
G:------------------------------------------------------------------------------|
D:------------------------------------------------------------------------------|
A:------------------------------------------------------------------------------|
E:------------------------------------------------------------------------------|

E:-14----10---14----10---14----10---15--14---12--14---10--12---9------|
B:----12---------12---------12----------------------------------------|
G:--------------------------------------------------------------------|
D:--------------------------------------------------------------------|
A:--------------------------------------------------------------------|
E:--------------------------------------------------------------------|


albums
tabs

 

1