Search tabs:
Browse artists: 0-9 | A | B | C | D | E | F | G | H | I | J | K | L | M | N | O | P | Q | R | S | T | U | V | W | X | Y | Z
/ / / guitar tab

-------------------------------------------------------------------------------
			     Candy Shop - 50 Cent
-------------------------------------------------------------------------------
Tabbed by:Ace496970
Email:Ace496970@yahoo.com

Tuning:Drop D tuning


Main:
Repeat 2x
e|---------------------------------------------------------------------------|
B|---------------------------------------------------------------------------|
G|---------------------------------------------------------------------------|
D|---5-5/4--4----------5-5/4--4----------------------------------------------|
A|---------------------------------------------------------------------------|
D|0--5-5/4--4-------0--5-5/4--4----------------------------------------------|

Then:

e|---------------------------------------------------------------------------|
B|---------------------------------------------------------------------------|
G|---------------------------------------------------------------------------|
D|3/4/5/7--4-----------------------------------------------------------------|
A|---------------------------------------------------------------------------|
D|3/4/5/7--4-----------------------------------------------------------------|

That's it, the candy shop. This is better that the 1st version for sure, so be sure to rate it.


albums
tabs

 

1