Search tabs:
Browse artists: 0-9 | A | B | C | D | E | F | G | H | I | J | K | L | M | N | O | P | Q | R | S | T | U | V | W | X | Y | Z
/ A New Found Glory / Nothing Gold Can Stay (1999) / Hit or Miss guitar tab

This song is really awesome. It has lots of palm mutes in it. You can palm mute your guitar by resting your pinky on the bridge, then you can strum it with a pick. It sounds cool and it's really easy. It's played in normal tuning.

( ^ ) = palm mute the chord

( x ) = play the chord, but do not push down

Intro:
------------------------------------------------------------------
------------------------------------------------------------------
-9-9-x-9-------------------------------------------------------   Play this three times with a very fast
-9-9-x-9--9-9-x-9-11-11-x-11-7-7-x-7---------------             and continuous motion.
-7-7-x-7--9-9-x-9-11-11-x-11-7-7-x-7--------------
-------------7-7-x-7--9---9-x--9--5-5-x-5--------------
    E             B             C            A
Bridge:
----------------------------------------------------------------
----------------------------------------------------------------
-9-9-9-9------------------------------------------------------         After the third time you play the
-9-9-9-9-9-9-9-9-11-11-11-11-7-7-7-7--------------      intro, play this. It is all palm muted.
-7-7-7-7-9-9-9-9-11-11-11-11-7-7-7-7--------------       Play the intro three more times after
------------7-7-7-7--9---9--9---9--5-5-5-5--------------                             this.
 ^ ^  ^ ^  ^  ^ ^ ^   ^   ^   ^    ^  ^  ^ ^  ^
    E          B               C             A

--------------------------
--------------------------
---9--------------------
---9-----9------7------   Play this after you play the intro three times more. Let each chord
---7-----9------7-------                                           ring.
----------7------5------
Melody:
--------------------------------------------------------------------------------------------
--------------------------------------------------------------------------------------------
----------------------4-4-4----4-4-4----6-6-6---6-6-6---4-4--4---4--4-4--------
-2-2-2---2-2-2----4-4-4----4-4-4----6-6-6---6-6-6---4-4--4---4--4-4-------
-2-2-2---2-2-2----2-2-2----2-2-2----4-4-4---4-4-4---2-2--2---2--2-2-------
-0-0-0---0-0-0------------------------------------------------------------------------
 ^  ^      ^ ^         ^  ^       ^  ^          ^ ^      ^  ^       ^  ^        ^   ^                  ( First two notes are
        E                    B                 C#                   B                                            palm muted. )
-------------------------------------------------------------------------------------------
-------------------------------------------------------------------------------------------
----------------------4-4-4---4-4-4---6-6-6---6-6-6---9-9-9-9-9-9-9-9------
-2-2-2---2-2-2----4-4-4---4-4-4---6-6-6---6-6-6---9-9-9-9-9-9-9-9-------       After playing this, just
-2-2-2---2-2-2----2-2-2---2-2-2---4-4-4---4-4-4---7-7-7-7-7-7-7-7-----            strum these chords.
-0-0-0---0-0-0------------------------------------------------------------------------       ( It would take too long
 ^ ^       ^ ^          ^  ^      ^  ^      ^  ^       ^  ^                                                     to type it, so figure it
         E                   B                   C#                 E                                            out yourself. )







Chorus:
--------------------------------------------------------------------
---------------------------------------------------------------------
--9-9-9------------------------------------------------------------
--9-9-9--9-9-9-11-11-11-11-11-11--11--11------------
--7-7-7--9-9-9-11-11-11-11-11-11--11--11-------------
-----------7-7-7---9--9--9---9---9---9---9----9--------------
  ^ ^      ^  ^       ^    ^  ^    ^   ^    ^   ^     ^
    E        B                     B
--------------------------------------------
--------------------------------------------
-9-9-9-------------------------------------
-9-9-9-9-9-9--7-7-7-7-7-7-7-7-----
-7-7-7-9-9-9--7-7-7-7-7-7-7-7-----
----------7-7-7-5-5-5-5-5-5-5-5-------
 ^ ^     ^  ^    ^  ^ ^  ^ ^  ^  ^ ^
   E        B             A

That is pretty much the whole song. Please tell me if you see any problems with this tab so I can improve it.


A New Found Glory albums
2004 Catalyst
2002 Sticks and Stones
2000 New Found Glory
1999 Nothing Gold Can Stay
Nothing Gold Can Stay tabs
01Hit or Miss tabbass tab
02Never Snows in Florida tabbass tab
033rd and Long tabbass tab
04You've Got a Friend in Pennsylvania tabbass tab
05The Blue Stare tabbass tab
062's & 3's tabbass tab
07Tell-Tale Heart tabbass tab
08Winter of '95 tabbass tab
09Passing Time tabbass tab
10Broken Sound tabbass tab
11Never Sometimes tabbass tab
12The Goodbye Song tabbass tab

 

1