Search tabs:
Browse artists: 0-9 | A | B | C | D | E | F | G | H | I | J | K | L | M | N | O | P | Q | R | S | T | U | V | W | X | Y | Z
/ ABBA / ABBA Gold. Greatest Hits / The Winner Takes It All guitar tab

Date: Wed, 3 Jan 1996 01:01:31 +0100
From: zucco@dns.easynet.it (Paolo Zucconelli)
Subject: CRD: The winner takes it all by ABBA

Title: The Winner Takes It All
Artist: ABBA
(By P.Zucconelli)

*   .   .   .   *   .   .   .   *   .   .   .   *   .   .    .
|-----7-----6-----4------------------------------------------------|
|-----------------------7-----3-------9-----7-----6------------8---|
|-6-----6-----6-----6-------3---3-----------------------8--------8-|
|---4-----4-----4-----4---0---------8---8-----8-----8--------8-----|
|---------------------------------6-------6-----6-----6---10-------|
|------------------------------------------------------------------|

  *   .   .   .   *   .   .   .   *   .   .   .   *   .   .   .
|-----9-----7-----6-----------------------------------------------|
|-----------------------9-------------7-----6-----4---------------|
|---8---8-----8-----8-----8-----------------------------6-----6---|
|-6-------6-----6-----6-------6-----6---6-----6-----6-----6-------|
|---------------------------6---6-4-------4-----4-----4-----4---4-|
|-----------------------------------------------------------------|


		G
I don't wanna talk
			D
About the things we've gone through
		Am
Though it's hurting me
		D
Now it's history
(G	D	Am	D)
I've played all my cards
And that's what you've done too
Nothing more to say
No more ace to play

		G
The winner takes it all
		Em7
The loser standing small
		Am
Beside the victory
		D
That's her destiny


(G	D	Am	D)
I was in your arms
Thinking I belonged there
I figured it made sense
Building me a fence
(G	D	Am	D)
Building me a home
Thinking I'd be strong there
But I was a fool
Playing by the rules

(G	Em7	Am	D)
The gods may throw a dice
Their minds as cold as ice
And someone way down here
Loses someone dear
(G	Em7	Am	D)
The winner takes it all
The loser has to fall
It's simple and it's plain
Why should I complain.


(G	D	Am	D)
But tell me does she kiss
Like I used to kiss you?
Does it feel the same
When she calls your name?
(G	D	Am	D)
Somewhere deep inside
You must know I miss you
But what can I say
Rules must be obeyed

(G	D	Am	D)
The judges will decide
The likes of me abide
Spectators of the show
Always staying low
(G	Em7	Am	D)
The game is on again
A lover or a friend
A big thing or a small
The winner takes it all


(G	D	Am	D)
I don't wanna talk
If it makes you feel sad
And I understand
You've come to shake my hand
(G	D	Am	D)
I apologize
If it makes you feel bad
Seeing me so tense
No self-confidence

But you see
(G	D	Am	D)
The winner takes it all
The winner takes it all...


Please E-Mail Corrections...


PAOLO ZUCCONELLI
VERONA (Italy)

E-Mail: Zucco@easy1.easynet.it
        Zucco@dns.easynet.it


ABBA albums
1981 The Visitors
1980 Super Trooper
1979 Voulez Vous
1977 The Album
1976 Arrival
1975 Abba
1974 Waterloo
1973 Ring Ring
ABBA Gold. Greatest Hits
ABBA Gold. Greatest Hits tabs
01Dancing Queen tabbass tab
02Knowing Me, Knowing You tabbass tab
03Take A Chance On Me tabbass tab
04Mamma Mia tabbass tab
05Lay All Your Love On Me tabbass tab
06Super Trouper tabbass tab
07I Have A Dream tabbass tab
08The Winner Takes It All tabbass tab
09Money, Money, Money tabbass tab
10S.O.S. tabbass tab
11Chiquitita tabbass tab
12Fernando tabbass tab
13Voulez Vous tabbass tab
14Gimme Gimme Gimme tabbass tab
15Does Your Mother Know? tabbass tab
16One Of Us tabbass tab
17The Name Of The Game tabbass tab
18Thank You For The Music tabbass tab
19Waterloo tabbass tab

 

1