Search tabs:
Browse artists: 0-9 | A | B | C | D | E | F | G | H | I | J | K | L | M | N | O | P | Q | R | S | T | U | V | W | X | Y | Z
/ Acid Bath / Paegan Terrorism Tactics (1997) / New Corpse guitar tab

New Corpse
Acid Bath - Pagan Terrorism Tactics
C Tuning
tabbed by DAle

The intro is figure 1 without palm muting, plus some variation that occurs
at the very end of the intro. Sorry but I just don't know it.


Figure 1
|-----------------------------------------------------------|
|-----------------------------------------------------------|
|-----------------------------------------------------------|
|-----------------------8--8-------------------------6--6---|
|-7-7-7-7-7-7-7-7-7-7-7-6--6---5-5-5-5-5-5-5-5-5-5-5-4--4---|
|-5-5-5-5-5-5-5-5-5-5-5--------3-3-3-3-3-3-3-3-3-3-3--------|
PM:::::::::::::::::::::        :::::::::::::::::::::

Figure 2
|-----------------------------------------------|
|-----------------------------------------------|
|-------------------7--7--7---------------------|
|----------6--6--6--5--5--5--6--6--6--5--5--6---|
|-5--5--5--4--4--4-----------4--4--4--3--3--4---|
|-3--3--3---------------------------------------|


Figure 3
|---------------------------------------------------------------------------------------|
|---------------------------------------------------------------------------------------|
|-----------------------------------------------------------------7-7-7-----------------|
|----------------------------------------------------------6-6-6--5-5-5--6-6-6--5-5-6---|
|-5-/-4--4--4--4--4--4--4--5-/-4--4--4--4--4--4--4--5-5-5--4-4-4---------4-4-4--3-3-4---|
|-3-/-2--2--2--2--2--2--2--3-/-2--2--2--2--2--2--2--3-3-3-------------------------------|



|-----------------------------------------------|
|-----------------------------------------------|
|-------------------7--7--7---------------------|
|----------6--6--6--5--5--5--6--6--6--5--5--6---|
|-5--5--5--4--4--4-----------4--4--4--3--3--4---|
|-3--3--3---------------------------------------|


Figure 4 (the rythm may be a little off)
|----------------------------------------------------------------------------|
|----------------------------------------------------------------------------|
|----------------------------------------------------------------------------|
|-10--1010-10--1010--------------------10--1010-10--1010------------8---8-8--|
|-8---8-8--8---8-8--9---9-9--9---9-9---8---8-8--8---8-8---9---9-9---6---6-6--|
|-------------------7---7-7--7---7-7----------------------7---7-7------------|


Figure 5
|-------------------------------------------------------|
|-------------------------------------------------------|
|-------------------------------------------------------|
|-------------------------------------------------------|
|-5--x-5--x-5--x-5--x-8--7---5--x-5--x-4--x-4--x-7--8---|
|-3--x-3--x-3--x-3--x-6--5---3--x-3--x-2--x-2--x-5--6---|
PM:::::::::::::::::::       ::::::::::::::::::::

Figure 6
|--------------------------------------------------|
|--------------------------------------------------|
|--------------------------------------------------|
|--------------------------------------------------|
|-5--5--5--5--5--5--8--7--5--5--5--4--4--4--7--8---|
|-3--3--3--3--3--3--6--5--3--3--3--2--2--2--5--6---|


Figure 7
|--------------------------------------------------------|
|--------------------------------------------------------|
|--------------------------------------------------------|
|--------------------------------------------------------|
|-5--x-4--x-3---5--x-4--x-3---5--x-4--x-3---5--x-4--x-3--|
|-3--x-2--x-1---3--x-2--x-1---3--x-2--x-1---3--x-2--x-1--|

Figure 8
|--------------------------------------------------|
|--------------------------------------------------|
|--------------------------------------------------|
|--------------------------------------------------|
|-5--4--4--3--5--4--4--3--5--4--4--3--5--4--4--3---|
|-3--2--2--1--3--2--2--1--3--2--2--1--3--2--2--1---|


|-----------------------------------------------------------------------------------------------------|
|-----------------------------------------------------------------------------------------------------|
|-------------------7--7--7----------------------------------------7--7--7----------------------------|
|----------6--6--6--5--5--5--6--6--6--5--5--6-------------6--6--6--5--5--5--6--6--6--5--5--6----------|
|-5--5--5--4--4--4-----------4--4--4--3--3--4----5--5--5--4--4--4-----------4--4--4--3--3--4---5--5\~~|
|-3--3--3----------------------------------------3--3--3---------------------------------------3--3\~~|





Acid bath *** yeah greatest band alive rip


Acid Bath albums
1997 Paegan Terrorism Tactics
1994 When The Kite String The Pope
Paegan Terrorism Tactics tabs
02Bleed Me An Ocean tabbass tab
04Diab Soule tabbass tab
05Locust Spawning tabbass tab
07New Death Sensation tabbass tab
08Venus Blue tabbass tab
0913 Fingers tabbass tab
10New Corpse tabbass tab
11Dead Girl tabbass tab

 

1