Search tabs:
Browse artists: 0-9 | A | B | C | D | E | F | G | H | I | J | K | L | M | N | O | P | Q | R | S | T | U | V | W | X | Y | Z
/ A.F.I. / Very Proud of Ya (1996) / Wake-Up Call guitar tab

-----------------------------------------------------------------------
                           WAKE UP CALL - A.F.I
-----------------------------------------------------------------------

By: Phil (puxley@saglac.qc.ca)

     D   F   Bb  C   A   B   G                                  
e|----------------------------------------------|
B|----------------------------------------------|
G|---7--10---3---5---2--------------------------|
D|---7--10---3---5---2---9---5------------------|
A|---5---8---1---3---0---9---5------------------|
E|-----------------------7---3------------------|

Intro: D, D
       D, F, Bb   X2

Verse: D, F, Bb, C, A, C   X2

Chorus: D, F, Bb, C   X2

Verse:

Chorus:

Ending: D, F, Bb, C   X4 (on 4th repitition don't play F)
        F, B, D, G    X4 (every 2nd repitition don't play G)

Bass solo

        D, F, Bb, C   X4 (on 4th repitition don't play F)

        End on D

========================================================================


A.F.I. albums
2003 Sing the Sorrow
2000 The Art of Drowning
1999 All Hallows E.P.
1999 Black Sails in the Sunset
1997 Shut Your Mouth And Open Your Eyes
1997 Answer That & Stay Fashionable
1996 Very Proud of Ya
Very Proud of Ya tabs
01He Who Laughs Last... tabbass tab
02File 13 tabbass tab
03Wake-Up Call tabbass tab
04Cult Status tabbass tab
05Perfect Fit tabbass tab
06Advances in Modern Technology tabbass tab
07Theory of Revolution tabbass tab
08This Secret Ninja tabbass tab
09Soap Box Derby tabbass tab
10Asprin Free tabbass tab
11Fishbowl tabbass tab
12Charles Atlas tabbass tab
13Crop Tub tabbass tab
14Consult My Lover tabbass tab
15Take the Test tabbass tab
16Two of a Kind tabbass tab
17Shatty Fatmas tabbass tab
18Yürf Rendenmein tabbass tab
19Cruise Control tabbass tab
20Modern Epic tabbass tab

 

1