Search tabs:
Browse artists: 0-9 | A | B | C | D | E | F | G | H | I | J | K | L | M | N | O | P | Q | R | S | T | U | V | W | X | Y | Z
/ / / guitar tab

Band: American Hi-Fi
Song: Beautiful Disaster
Tabber: Rudy Cortez (nemesis335142.tx@netzero.net)

D-Tune
	chords basically
 Verse
   C        G        D#       F
E|------------------------------------|
B|------------------------------------|
G|-5-5-5-0----------------------------|
D|-5-5-5-0--5-5-5-0--1-1-1-0--3-3-3-3-|
A|-3-3-3-0--5-5-5-0--1-1-1-0--3-3-3-3-|
D|----------5-5-5-0--1-1-1-0--3-3-3-3-|

 Chorus
   C        D#     F
E|---------------------|
B|---------------------|
G|-55555-5-------------|
D|-55555-5--1-1-0--3-3-|
A|-33333-3--1-1-0--3-3-|
D|----------1-1-0--3-3-|

 Break
  let ring
   F  G  D#
E|------------|
B|------------|
G|------------|
D|-3--3\\5--1--|
A|-3--3\\5--1--|
D|-3--3\\5--1--|


albums
tabs

 

1